ISO-10303-21;
HEADER;
FILE_DESCRIPTION (( 'STEP AP203' ),
    '1' );
FILE_NAME ('8f8d.STEP',
    '2022-07-07T09:43:33',
    ( '' ),
    ( '' ),
    'SwSTEP 2.0',
    'SolidWorks 2019',
    '' );
FILE_SCHEMA (( 'CONFIG_CONTROL_DESIGN' ));
ENDSEC;

DATA;
#1 = VERTEX_POINT ( 'NONE', #247 ) ;
#2 = CALENDAR_DATE ( 2022, 7, 7 ) ;
#3 = EDGE_LOOP ( 'NONE', ( #123, #216 ) ) ;
#4 = AXIS2_PLACEMENT_3D ( 'NONE', #256, #67, #304 ) ;
#5 = EDGE_CURVE ( 'NONE', #1, #221, #55, .T. ) ;
#6 = DIRECTION ( 'NONE',  ( -0.000000000000000000, -0.000000000000000000, -1.000000000000000000 ) ) ;
#7 = ORIENTED_EDGE ( 'NONE', *, *, #101, .T. ) ;
#8 = DIRECTION ( 'NONE',  ( 1.000000000000000000, 0.000000000000000000, 0.000000000000000000 ) ) ;
#9 = VECTOR ( 'NONE', #6, 1000.000000000000000 ) ;
#10 = APPROVAL_PERSON_ORGANIZATION ( #209, #56, #85 ) ;
#11 = EDGE_CURVE ( 'NONE', #222, #305, #57, .T. ) ;
#12 = AXIS2_PLACEMENT_3D ( 'NONE', #82, #179, #111 ) ;
#13 = COORDINATED_UNIVERSAL_TIME_OFFSET ( 1, 0, .AHEAD. ) ;
#14 = DATE_TIME_ROLE ( 'creation_date' ) ;
#15 = LINE ( 'NONE', #231, #200 ) ;
#16 = DIRECTION ( 'NONE',  ( 0.000000000000000000, 0.000000000000000000, 1.000000000000000000 ) ) ;
#17 = CIRCLE ( 'NONE', #58, 6.299999999999998934 ) ;
#18 = DIRECTION ( 'NONE',  ( 0.000000000000000000, 0.000000000000000000, 1.000000000000000000 ) ) ;
#19 = CARTESIAN_POINT ( 'NONE',  ( 0.000000000000000000, 0.000000000000000000, 7.199999999999984190 ) ) ;
#20 = DIRECTION ( 'NONE',  ( 1.000000000000000000, 0.000000000000000000, -0.000000000000000000 ) ) ;
#21 = DIRECTION ( 'NONE',  ( 0.000000000000000000, 0.000000000000000000, 1.000000000000000000 ) ) ;
#22 = APPROVAL ( #254, 'NEURÈENÝ' ) ;
#23 = ORIENTED_EDGE ( 'NONE', *, *, #152, .F. ) ;
#24 = PRODUCT_DEFINITION_SHAPE ( 'NONE', 'NONE',  #199 ) ;
#25 = PERSON_AND_ORGANIZATION_ROLE ( 'classification_officer' ) ;
#26 = APPROVAL_DATE_TIME ( #48, #22 ) ;
#27 = ADVANCED_FACE ( 'NONE', ( #271 ), #223, .T. ) ;
#28 = EDGE_LOOP ( 'NONE', ( #287, #269, #219, #7 ) ) ;
#29 = FACE_OUTER_BOUND ( 'NONE', #28, .T. ) ;
#30 = CIRCLE ( 'NONE', #43, 6.099999999999999645 ) ;
#31 = MANIFOLD_SOLID_BREP ( 'Zaoblit1', #35 ) ;
#32 = CARTESIAN_POINT ( 'NONE',  ( 0.000000000000000000, 0.000000000000000000, 7.000000000000000000 ) ) ;
#33 = DIRECTION ( 'NONE',  ( 1.224646799147353207E-16, 1.000000000000000000, -0.000000000000000000 ) ) ;
#34 = CARTESIAN_POINT ( 'NONE',  ( -9.000000000000000000, 0.000000000000000000, 0.000000000000000000 ) ) ;
#35 = CLOSED_SHELL ( 'NONE', ( #157, #27, #103, #50, #281, #124, #296, #175, #257 ) ) ;
#36 = APPROVAL ( #218, 'NEURÈENÝ' ) ;
#37 = MECHANICAL_CONTEXT ( 'NONE', #273, 'mechanical' ) ;
#38 = APPROVAL_PERSON_ORGANIZATION ( #70, #36, #163 ) ;
#39 = CALENDAR_DATE ( 2022, 7, 7 ) ;
#40 = PLANE ( 'NONE',  #215 ) ;
#41 = CARTESIAN_POINT ( 'NONE',  ( 0.000000000000000000, 0.000000000000000000, 7.000000000000000000 ) ) ;
#42 = CIRCLE ( 'NONE', #121, 9.000000000000000000 ) ;
#43 = AXIS2_PLACEMENT_3D ( 'NONE', #251, #130, #88 ) ;
#44 = CARTESIAN_POINT ( 'NONE',  ( 0.000000000000000000, 0.000000000000000000, 7.000000000000000000 ) ) ;
#45 = DIRECTION ( 'NONE',  ( -0.000000000000000000, -0.000000000000000000, -1.000000000000000000 ) ) ;
#46 = PRODUCT ( '8f8d', '8f8d', '', ( #37 ) ) ;
#47 = EDGE_LOOP ( 'NONE', ( #143, #126, #165, #198 ) ) ;
#48 = DATE_AND_TIME ( #92, #131 ) ;
#49 = DIRECTION ( 'NONE',  ( 1.000000000000000000, 0.000000000000000000, 0.000000000000000000 ) ) ;
#50 = ADVANCED_FACE ( 'NONE', ( #29 ), #267, .T. ) ;
#51 = DATE_TIME_ROLE ( 'classification_date' ) ;
#52 = CARTESIAN_POINT ( 'NONE',  ( 6.099999999999999645, 7.470345474798854293E-16, 1006.999999999999886 ) ) ;
#53 = ORIENTED_EDGE ( 'NONE', *, *, #211, .T. ) ;
#54 = AXIS2_PLACEMENT_3D ( 'NONE', #248, #95, #194 ) ;
#55 = LINE ( 'NONE', #52, #150 ) ;
#56 = APPROVAL ( #303, 'NEURÈENÝ' ) ;
#57 = LINE ( 'NONE', #173, #9 ) ;
#58 = AXIS2_PLACEMENT_3D ( 'NONE', #164, #262, #139 ) ;
#59 = EDGE_CURVE ( 'NONE', #295, #148, #90, .T. ) ;
#60 = APPLICATION_PROTOCOL_DEFINITION ( 'international standard', 'config_control_design', 1994, #189 ) ;
#61 =( LENGTH_UNIT ( ) NAMED_UNIT ( * ) SI_UNIT ( .MILLI., .METRE. ) );
#62 = AXIS2_PLACEMENT_3D ( 'NONE', #19, #110, #208 ) ;
#63 = FACE_OUTER_BOUND ( 'NONE', #125, .T. ) ;
#64 = CARTESIAN_POINT ( 'NONE',  ( 0.000000000000000000, 0.000000000000000000, 1006.999999999999886 ) ) ;
#65 = CYLINDRICAL_SURFACE ( 'NONE', #202, 9.000000000000000000 ) ;
#66 = DIRECTION ( 'NONE',  ( -0.000000000000000000, -0.000000000000000000, -1.000000000000000000 ) ) ;
#67 = DIRECTION ( 'NONE',  ( 0.000000000000000000, 0.000000000000000000, 1.000000000000000000 ) ) ;
#68 = ORIENTED_EDGE ( 'NONE', *, *, #170, .T. ) ;
#69 = CARTESIAN_POINT ( 'NONE',  ( -9.000000000000000000, 0.000000000000000000, 7.000000000000000000 ) ) ;
#70 = PERSON_AND_ORGANIZATION ( #100, #77 ) ;
#71 = CARTESIAN_POINT ( 'NONE',  ( -6.099999999999999645, 0.000000000000000000, 1006.999999999999886 ) ) ;
#72 = COORDINATED_UNIVERSAL_TIME_OFFSET ( 1, 0, .AHEAD. ) ;
#73 = DIRECTION ( 'NONE',  ( 0.000000000000000000, 0.000000000000000000, 1.000000000000000000 ) ) ;
#74 = ORIENTED_EDGE ( 'NONE', *, *, #5, .F. ) ;
#75 = EDGE_CURVE ( 'NONE', #87, #148, #153, .T. ) ;
#76 = EDGE_LOOP ( 'NONE', ( #53, #68 ) ) ;
#77 = ORGANIZATION ( 'NEURÈENÝ', 'NEURÈENÝ', '' ) ;
#78 = ORIENTED_EDGE ( 'NONE', *, *, #75, .F. ) ;
#79 =( GEOMETRIC_REPRESENTATION_CONTEXT ( 3 ) GLOBAL_UNCERTAINTY_ASSIGNED_CONTEXT ( ( #81 ) ) GLOBAL_UNIT_ASSIGNED_CONTEXT ( ( #61, #276, #102 ) ) REPRESENTATION_CONTEXT ( 'NONE', 'WORKASPACE' ) );
#80 = PERSON_AND_ORGANIZATION ( #100, #77 ) ;
#81 = UNCERTAINTY_MEASURE_WITH_UNIT (LENGTH_MEASURE( 1.000000000000000082E-05 ), #61, 'distance_accuracy_value', 'NONE');
#82 = CARTESIAN_POINT ( 'NONE',  ( 0.000000000000000000, 0.000000000000000000, 7.000000000000000000 ) ) ;
#83 = CARTESIAN_POINT ( 'NONE',  ( 6.299999999999998934, 0.000000000000000000, 6.999999999999992006 ) ) ;
#84 = DIRECTION ( 'NONE',  ( -1.000000000000000000, 0.000000000000000000, 0.000000000000000000 ) ) ;
#85 = APPROVAL_ROLE ( '' ) ;
#86 = DIRECTION ( 'NONE',  ( 1.000000000000000000, 0.000000000000000000, 0.000000000000000000 ) ) ;
#87 = VERTEX_POINT ( 'NONE', #195 ) ;
#88 = DIRECTION ( 'NONE',  ( 1.000000000000000000, 0.000000000000000000, 0.000000000000000000 ) ) ;
#89 = PLANE ( 'NONE',  #4 ) ;
#90 = CIRCLE ( 'NONE', #233, 6.299999999999998934 ) ;
#91 = EDGE_LOOP ( 'NONE', ( #108, #99 ) ) ;
#92 = CALENDAR_DATE ( 2022, 7, 7 ) ;
#93 = VERTEX_POINT ( 'NONE', #34 ) ;
#94 = EDGE_LOOP ( 'NONE', ( #78, #245, #260, #187 ) ) ;
#95 = DIRECTION ( 'NONE',  ( -0.000000000000000000, -0.000000000000000000, -1.000000000000000000 ) ) ;
#96 = CC_DESIGN_PERSON_AND_ORGANIZATION_ASSIGNMENT ( #207, #176, ( #46 ) ) ;
#97 = CARTESIAN_POINT ( 'NONE',  ( 0.000000000000000000, 0.000000000000000000, 1006.999999999999886 ) ) ;
#98 = TOROIDAL_SURFACE ( 'NONE', #107, 6.299999999999998934, 0.2000000000000000111 ) ;
#99 = ORIENTED_EDGE ( 'NONE', *, *, #250, .T. ) ;
#100 = PERSON ( 'NEURÈENÝ', 'NEURÈENÝ', 'NEURÈENÝ', ('NEURÈENÝ'), ('NEURÈENÝ'), ('NEURÈENÝ') ) ;
#101 = EDGE_CURVE ( 'NONE', #93, #305, #137, .T. ) ;
#102 =( NAMED_UNIT ( * ) SI_UNIT ( $, .STERADIAN. ) SOLID_ANGLE_UNIT ( ) );
#103 = ADVANCED_FACE ( 'NONE', ( #240 ), #65, .T. ) ;
#104 = PERSON_AND_ORGANIZATION ( #100, #77 ) ;
#105 = DIRECTION ( 'NONE',  ( 0.000000000000000000, 0.000000000000000000, 1.000000000000000000 ) ) ;
#106 = DIRECTION ( 'NONE',  ( 0.000000000000000000, 0.000000000000000000, 1.000000000000000000 ) ) ;
#107 = AXIS2_PLACEMENT_3D ( 'NONE', #264, #302, #49 ) ;
#108 = ORIENTED_EDGE ( 'NONE', *, *, #59, .T. ) ;
#109 = EDGE_CURVE ( 'NONE', #171, #87, #255, .T. ) ;
#110 = DIRECTION ( 'NONE',  ( 0.000000000000000000, 0.000000000000000000, 1.000000000000000000 ) ) ;
#111 = DIRECTION ( 'NONE',  ( 1.000000000000000000, 0.000000000000000000, -0.000000000000000000 ) ) ;
#112 = CARTESIAN_POINT ( 'NONE',  ( 0.000000000000000000, 0.000000000000000000, 1006.999999999999886 ) ) ;
#113 = ORIENTED_EDGE ( 'NONE', *, *, #141, .F. ) ;
#114 = CALENDAR_DATE ( 2022, 7, 7 ) ;
#115 = DIRECTION ( 'NONE',  ( 1.000000000000000000, 0.000000000000000000, 0.000000000000000000 ) ) ;
#116 = APPROVAL_ROLE ( '' ) ;
#117 = ADVANCED_BREP_SHAPE_REPRESENTATION ( '8f8d', ( #31, #275 ), #79 ) ;
#118 = DATE_AND_TIME ( #114, #169 ) ;
#119 = ORIENTED_EDGE ( 'NONE', *, *, #226, .F. ) ;
#120 = COORDINATED_UNIVERSAL_TIME_OFFSET ( 1, 0, .AHEAD. ) ;
#121 = AXIS2_PLACEMENT_3D ( 'NONE', #182, #106, #161 ) ;
#122 = CC_DESIGN_SECURITY_CLASSIFICATION ( #151, ( #203 ) ) ;
#123 = ORIENTED_EDGE ( 'NONE', *, *, #166, .T. ) ;
#124 = ADVANCED_FACE ( 'NONE', ( #167 ), #40, .F. ) ;
#125 = EDGE_LOOP ( 'NONE', ( #74, #283, #263, #190 ) ) ;
#126 = ORIENTED_EDGE ( 'NONE', *, *, #11, .T. ) ;
#127 = CIRCLE ( 'NONE', #299, 6.099999999999999645 ) ;
#128 = CARTESIAN_POINT ( 'NONE',  ( 0.000000000000000000, 0.000000000000000000, 0.000000000000000000 ) ) ;
#129 = CC_DESIGN_APPROVAL ( #22, ( #203 ) ) ;
#130 = DIRECTION ( 'NONE',  ( 0.000000000000000000, 0.000000000000000000, 1.000000000000000000 ) ) ;
#131 = LOCAL_TIME ( 11, 43, 33.00000000000000000, #120 ) ;
#132 = DESIGN_CONTEXT ( 'detailed design', #189, 'design' ) ;
#133 = CARTESIAN_POINT ( 'NONE',  ( 0.000000000000000000, 0.000000000000000000, 7.199999999999984190 ) ) ;
#134 = DIRECTION ( 'NONE',  ( 1.000000000000000000, 0.000000000000000000, 0.000000000000000000 ) ) ;
#135 = CARTESIAN_POINT ( 'NONE',  ( 9.000000000000000000, 1.102182119232617714E-15, 0.000000000000000000 ) ) ;
#136 = CARTESIAN_POINT ( 'NONE',  ( 0.000000000000000000, 0.000000000000000000, 0.000000000000000000 ) ) ;
#137 = CIRCLE ( 'NONE', #196, 9.000000000000000000 ) ;
#138 = DIRECTION ( 'NONE',  ( 0.000000000000000000, -1.000000000000000000, 0.000000000000000000 ) ) ;
#139 = DIRECTION ( 'NONE',  ( 1.000000000000000000, 0.000000000000000000, 0.000000000000000000 ) ) ;
#140 = FACE_OUTER_BOUND ( 'NONE', #3, .T. ) ;
#141 = EDGE_CURVE ( 'NONE', #221, #295, #239, .T. ) ;
#142 = PERSON_AND_ORGANIZATION ( #100, #77 ) ;
#143 = ORIENTED_EDGE ( 'NONE', *, *, #170, .F. ) ;
#144 = APPROVAL_DATE_TIME ( #261, #36 ) ;
#145 = CC_DESIGN_DATE_AND_TIME_ASSIGNMENT ( #118, #51, ( #151 ) ) ;
#146 = DIRECTION ( 'NONE',  ( -1.000000000000000000, 0.000000000000000000, 0.000000000000000000 ) ) ;
#147 = ORIENTED_EDGE ( 'NONE', *, *, #300, .T. ) ;
#148 = VERTEX_POINT ( 'NONE', #159 ) ;
#149 = DIRECTION ( 'NONE',  ( -0.000000000000000000, -0.000000000000000000, -1.000000000000000000 ) ) ;
#150 = VECTOR ( 'NONE', #193, 1000.000000000000000 ) ;
#151 = SECURITY_CLASSIFICATION ( '', '', #243 ) ;
#152 = EDGE_CURVE ( 'NONE', #87, #221, #227, .T. ) ;
#153 = CIRCLE ( 'NONE', #270, 0.1999999999999996503 ) ;
#154 = LOCAL_TIME ( 11, 43, 33.00000000000000000, #191 ) ;
#155 = DATE_AND_TIME ( #297, #228 ) ;
#156 = APPROVAL_DATE_TIME ( #155, #56 ) ;
#157 = ADVANCED_FACE ( 'NONE', ( #180 ), #98, .F. ) ;
#158 = CYLINDRICAL_SURFACE ( 'NONE', #178, 6.099999999999999645 ) ;
#159 = CARTESIAN_POINT ( 'NONE',  ( -6.299999999999998934, 7.715274834628324392E-16, 6.999999999999992006 ) ) ;
#160 = DIRECTION ( 'NONE',  ( -0.000000000000000000, -0.000000000000000000, -1.000000000000000000 ) ) ;
#161 = DIRECTION ( 'NONE',  ( 1.000000000000000000, 0.000000000000000000, 0.000000000000000000 ) ) ;
#162 = AXIS2_PLACEMENT_3D ( 'NONE', #133, #105, #279 ) ;
#163 = APPROVAL_ROLE ( '' ) ;
#164 = CARTESIAN_POINT ( 'NONE',  ( 0.000000000000000000, 0.000000000000000000, 7.000000000000000000 ) ) ;
#165 = ORIENTED_EDGE ( 'NONE', *, *, #226, .T. ) ;
#166 = EDGE_CURVE ( 'NONE', #171, #1, #177, .T. ) ;
#167 = FACE_OUTER_BOUND ( 'NONE', #238, .T. ) ;
#168 = CIRCLE ( 'NONE', #289, 9.000000000000000000 ) ;
#169 = LOCAL_TIME ( 11, 43, 33.00000000000000000, #72 ) ;
#170 = EDGE_CURVE ( 'NONE', #222, #244, #274, .T. ) ;
#171 = VERTEX_POINT ( 'NONE', #282 ) ;
#172 = ORIENTED_EDGE ( 'NONE', *, *, #75, .T. ) ;
#173 = CARTESIAN_POINT ( 'NONE',  ( 9.000000000000000000, 1.102182119232617714E-15, 7.000000000000000000 ) ) ;
#174 = ORIENTED_EDGE ( 'NONE', *, *, #192, .F. ) ;
#175 = ADVANCED_FACE ( 'NONE', ( #140 ), #89, .T. ) ;
#176 = PERSON_AND_ORGANIZATION_ROLE ( 'design_owner' ) ;
#177 = CIRCLE ( 'NONE', #224, 6.099999999999999645 ) ;
#178 = AXIS2_PLACEMENT_3D ( 'NONE', #64, #66, #301 ) ;
#179 = DIRECTION ( 'NONE',  ( 0.000000000000000000, 0.000000000000000000, 1.000000000000000000 ) ) ;
#180 = FACE_OUTER_BOUND ( 'NONE', #183, .T. ) ;
#181 = COORDINATED_UNIVERSAL_TIME_OFFSET ( 1, 0, .AHEAD. ) ;
#182 = CARTESIAN_POINT ( 'NONE',  ( 0.000000000000000000, 0.000000000000000000, 7.000000000000000000 ) ) ;
#183 = EDGE_LOOP ( 'NONE', ( #23, #172, #206, #113 ) ) ;
#184 = PERSON_AND_ORGANIZATION ( #100, #77 ) ;
#185 = CARTESIAN_POINT ( 'NONE',  ( 0.000000000000000000, 0.000000000000000000, 0.000000000000000000 ) ) ;
#186 = CC_DESIGN_DATE_AND_TIME_ASSIGNMENT ( #230, #14, ( #199 ) ) ;
#187 = ORIENTED_EDGE ( 'NONE', *, *, #250, .F. ) ;
#188 = DIRECTION ( 'NONE',  ( 0.000000000000000000, 0.000000000000000000, 1.000000000000000000 ) ) ;
#189 = APPLICATION_CONTEXT ( 'configuration controlled 3d designs of mechanical parts and assemblies' ) ;
#190 = ORIENTED_EDGE ( 'NONE', *, *, #152, .T. ) ;
#191 = COORDINATED_UNIVERSAL_TIME_OFFSET ( 1, 0, .AHEAD. ) ;
#192 = EDGE_CURVE ( 'NONE', #1, #171, #127, .T. ) ;
#193 = DIRECTION ( 'NONE',  ( -0.000000000000000000, -0.000000000000000000, -1.000000000000000000 ) ) ;
#194 = DIRECTION ( 'NONE',  ( -1.000000000000000000, 0.000000000000000000, 0.000000000000000000 ) ) ;
#195 = CARTESIAN_POINT ( 'NONE',  ( -6.099999999999999645, 0.000000000000000000, 7.199999999999984190 ) ) ;
#196 = AXIS2_PLACEMENT_3D ( 'NONE', #128, #73, #115 ) ;
#197 = APPROVAL_PERSON_ORGANIZATION ( #104, #22, #116 ) ;
#198 = ORIENTED_EDGE ( 'NONE', *, *, #268, .F. ) ;
#199 = PRODUCT_DEFINITION ( 'NEZNÁMÝ', '', #203, #132 ) ;
#200 = VECTOR ( 'NONE', #160, 1000.000000000000000 ) ;
#201 = FACE_BOUND ( 'NONE', #91, .T. ) ;
#202 = AXIS2_PLACEMENT_3D ( 'NONE', #41, #286, #84 ) ;
#203 = PRODUCT_DEFINITION_FORMATION_WITH_SPECIFIED_SOURCE ( 'LIBOVOLNÝ', '', #46, .NOT_KNOWN. ) ;
#204 = PLANE ( 'NONE',  #12 ) ;
#205 = CARTESIAN_POINT ( 'NONE',  ( 6.299999999999998934, 0.000000000000000000, 7.199999999999984190 ) ) ;
#206 = ORIENTED_EDGE ( 'NONE', *, *, #59, .F. ) ;
#207 = PERSON_AND_ORGANIZATION ( #100, #77 ) ;
#208 = DIRECTION ( 'NONE',  ( 1.000000000000000000, 0.000000000000000000, 0.000000000000000000 ) ) ;
#209 = PERSON_AND_ORGANIZATION ( #100, #77 ) ;
#210 = DIRECTION ( 'NONE',  ( 1.000000000000000000, 0.000000000000000000, 0.000000000000000000 ) ) ;
#211 = EDGE_CURVE ( 'NONE', #244, #222, #42, .T. ) ;
#212 = ORIENTED_EDGE ( 'NONE', *, *, #109, .F. ) ;
#213 = PERSON_AND_ORGANIZATION_ROLE ( 'design_supplier' ) ;
#214 = FACE_OUTER_BOUND ( 'NONE', #94, .T. ) ;
#215 = AXIS2_PLACEMENT_3D ( 'NONE', #136, #280, #20 ) ;
#216 = ORIENTED_EDGE ( 'NONE', *, *, #192, .T. ) ;
#217 = ORIENTED_EDGE ( 'NONE', *, *, #5, .T. ) ;
#218 = APPROVAL_STATUS ( 'not_yet_approved' ) ;
#219 = ORIENTED_EDGE ( 'NONE', *, *, #268, .T. ) ;
#220 = TOROIDAL_SURFACE ( 'NONE', #162, 6.299999999999998934, 0.2000000000000000111 ) ;
#221 = VERTEX_POINT ( 'NONE', #259 ) ;
#222 = VERTEX_POINT ( 'NONE', #236 ) ;
#223 = CYLINDRICAL_SURFACE ( 'NONE', #294, 6.099999999999999645 ) ;
#224 = AXIS2_PLACEMENT_3D ( 'NONE', #112, #21, #210 ) ;
#225 = LOCAL_TIME ( 11, 43, 33.00000000000000000, #181 ) ;
#226 = EDGE_CURVE ( 'NONE', #305, #93, #168, .T. ) ;
#227 = CIRCLE ( 'NONE', #62, 6.099999999999999645 ) ;
#228 = LOCAL_TIME ( 11, 43, 33.00000000000000000, #13 ) ;
#229 = DIRECTION ( 'NONE',  ( 1.000000000000000000, 0.000000000000000000, 0.000000000000000000 ) ) ;
#230 = DATE_AND_TIME ( #39, #225 ) ;
#231 = CARTESIAN_POINT ( 'NONE',  ( -9.000000000000000000, 0.000000000000000000, 7.000000000000000000 ) ) ;
#232 = DIRECTION ( 'NONE',  ( 0.000000000000000000, 0.000000000000000000, 1.000000000000000000 ) ) ;
#233 = AXIS2_PLACEMENT_3D ( 'NONE', #32, #292, #8 ) ;
#234 = CARTESIAN_POINT ( 'NONE',  ( 0.000000000000000000, 0.000000000000000000, 0.000000000000000000 ) ) ;
#235 = DIRECTION ( 'NONE',  ( 0.000000000000000000, 0.000000000000000000, -1.000000000000000000 ) ) ;
#236 = CARTESIAN_POINT ( 'NONE',  ( 9.000000000000000000, 1.102182119232617714E-15, 7.000000000000000000 ) ) ;
#237 = CARTESIAN_POINT ( 'NONE',  ( 0.000000000000000000, 0.000000000000000000, 1006.999999999999886 ) ) ;
#238 = EDGE_LOOP ( 'NONE', ( #272, #119 ) ) ;
#239 = CIRCLE ( 'NONE', #284, 0.1999999999999996503 ) ;
#240 = FACE_OUTER_BOUND ( 'NONE', #47, .T. ) ;
#241 = PERSON_AND_ORGANIZATION_ROLE ( 'creator' ) ;
#242 = DIRECTION ( 'NONE',  ( -1.000000000000000000, 1.224646799147353454E-16, 0.000000000000000000 ) ) ;
#243 = SECURITY_CLASSIFICATION_LEVEL ( 'unclassified' ) ;
#244 = VERTEX_POINT ( 'NONE', #69 ) ;
#245 = ORIENTED_EDGE ( 'NONE', *, *, #300, .F. ) ;
#246 = CC_DESIGN_PERSON_AND_ORGANIZATION_ASSIGNMENT ( #184, #241, ( #203 ) ) ;
#247 = CARTESIAN_POINT ( 'NONE',  ( 6.099999999999999645, 7.470345474798854293E-16, 1006.999999999999886 ) ) ;
#248 = CARTESIAN_POINT ( 'NONE',  ( 0.000000000000000000, 0.000000000000000000, 7.000000000000000000 ) ) ;
#249 = VECTOR ( 'NONE', #45, 1000.000000000000000 ) ;
#250 = EDGE_CURVE ( 'NONE', #148, #295, #17, .T. ) ;
#251 = CARTESIAN_POINT ( 'NONE',  ( 0.000000000000000000, 0.000000000000000000, 7.199999999999984190 ) ) ;
#252 = CC_DESIGN_PERSON_AND_ORGANIZATION_ASSIGNMENT ( #142, #25, ( #151 ) ) ;
#253 = PERSON_AND_ORGANIZATION_ROLE ( 'creator' ) ;
#254 = APPROVAL_STATUS ( 'not_yet_approved' ) ;
#255 = LINE ( 'NONE', #71, #249 ) ;
#256 = CARTESIAN_POINT ( 'NONE',  ( 0.000000000000000000, 0.000000000000000000, 1006.999999999999886 ) ) ;
#257 = ADVANCED_FACE ( 'NONE', ( #214 ), #220, .F. ) ;
#258 = CC_DESIGN_APPROVAL ( #36, ( #151 ) ) ;
#259 = CARTESIAN_POINT ( 'NONE',  ( 6.099999999999999645, 7.470345474798854293E-16, 7.199999999999984190 ) ) ;
#260 = ORIENTED_EDGE ( 'NONE', *, *, #141, .T. ) ;
#261 = DATE_AND_TIME ( #2, #154 ) ;
#262 = DIRECTION ( 'NONE',  ( -0.000000000000000000, -0.000000000000000000, -1.000000000000000000 ) ) ;
#263 = ORIENTED_EDGE ( 'NONE', *, *, #109, .T. ) ;
#264 = CARTESIAN_POINT ( 'NONE',  ( 0.000000000000000000, 0.000000000000000000, 7.199999999999984190 ) ) ;
#265 = AXIS2_PLACEMENT_3D ( 'NONE', #44, #16, #134 ) ;
#266 = CC_DESIGN_APPROVAL ( #56, ( #199 ) ) ;
#267 = CYLINDRICAL_SURFACE ( 'NONE', #54, 9.000000000000000000 ) ;
#268 = EDGE_CURVE ( 'NONE', #244, #93, #15, .T. ) ;
#269 = ORIENTED_EDGE ( 'NONE', *, *, #211, .F. ) ;
#270 = AXIS2_PLACEMENT_3D ( 'NONE', #290, #33, #242 ) ;
#271 = FACE_OUTER_BOUND ( 'NONE', #293, .T. ) ;
#272 = ORIENTED_EDGE ( 'NONE', *, *, #101, .F. ) ;
#273 = APPLICATION_CONTEXT ( 'configuration controlled 3d designs of mechanical parts and assemblies' ) ;
#274 = CIRCLE ( 'NONE', #265, 9.000000000000000000 ) ;
#275 = AXIS2_PLACEMENT_3D ( 'NONE', #234, #18, #229 ) ;
#276 =( NAMED_UNIT ( * ) PLANE_ANGLE_UNIT ( ) SI_UNIT ( $, .RADIAN. ) );
#277 = CC_DESIGN_PERSON_AND_ORGANIZATION_ASSIGNMENT ( #288, #213, ( #203 ) ) ;
#278 = APPLICATION_PROTOCOL_DEFINITION ( 'international standard', 'config_control_design', 1994, #273 ) ;
#279 = DIRECTION ( 'NONE',  ( 1.000000000000000000, 0.000000000000000000, 0.000000000000000000 ) ) ;
#280 = DIRECTION ( 'NONE',  ( 0.000000000000000000, 0.000000000000000000, 1.000000000000000000 ) ) ;
#281 = ADVANCED_FACE ( 'NONE', ( #201, #298 ), #204, .T. ) ;
#282 = CARTESIAN_POINT ( 'NONE',  ( -6.099999999999999645, 0.000000000000000000, 1006.999999999999886 ) ) ;
#283 = ORIENTED_EDGE ( 'NONE', *, *, #166, .F. ) ;
#284 = AXIS2_PLACEMENT_3D ( 'NONE', #205, #138, #235 ) ;
#285 = DIRECTION ( 'NONE',  ( 1.000000000000000000, 0.000000000000000000, 0.000000000000000000 ) ) ;
#286 = DIRECTION ( 'NONE',  ( -0.000000000000000000, -0.000000000000000000, -1.000000000000000000 ) ) ;
#287 = ORIENTED_EDGE ( 'NONE', *, *, #11, .F. ) ;
#288 = PERSON_AND_ORGANIZATION ( #100, #77 ) ;
#289 = AXIS2_PLACEMENT_3D ( 'NONE', #185, #188, #285 ) ;
#290 = CARTESIAN_POINT ( 'NONE',  ( -6.299999999999998934, 7.715274834628324392E-16, 7.199999999999984190 ) ) ;
#291 = PRODUCT_RELATED_PRODUCT_CATEGORY ( 'detail', '', ( #46 ) ) ;
#292 = DIRECTION ( 'NONE',  ( -0.000000000000000000, -0.000000000000000000, -1.000000000000000000 ) ) ;
#293 = EDGE_LOOP ( 'NONE', ( #174, #217, #147, #212 ) ) ;
#294 = AXIS2_PLACEMENT_3D ( 'NONE', #97, #149, #146 ) ;
#295 = VERTEX_POINT ( 'NONE', #83 ) ;
#296 = ADVANCED_FACE ( 'NONE', ( #63 ), #158, .T. ) ;
#297 = CALENDAR_DATE ( 2022, 7, 7 ) ;
#298 = FACE_OUTER_BOUND ( 'NONE', #76, .T. ) ;
#299 = AXIS2_PLACEMENT_3D ( 'NONE', #237, #232, #86 ) ;
#300 = EDGE_CURVE ( 'NONE', #221, #87, #30, .T. ) ;
#301 = DIRECTION ( 'NONE',  ( -1.000000000000000000, 0.000000000000000000, 0.000000000000000000 ) ) ;
#302 = DIRECTION ( 'NONE',  ( 0.000000000000000000, 0.000000000000000000, 1.000000000000000000 ) ) ;
#303 = APPROVAL_STATUS ( 'not_yet_approved' ) ;
#304 = DIRECTION ( 'NONE',  ( 1.000000000000000000, 0.000000000000000000, -0.000000000000000000 ) ) ;
#305 = VERTEX_POINT ( 'NONE', #135 ) ;
#306 = SHAPE_DEFINITION_REPRESENTATION ( #24, #117 ) ;
#307 = CC_DESIGN_PERSON_AND_ORGANIZATION_ASSIGNMENT ( #80, #253, ( #199 ) ) ;
ENDSEC;
END-ISO-10303-21;
