ISO-10303-21;
HEADER;
FILE_DESCRIPTION (( 'STEP AP203' ),
    '1' );
FILE_NAME ('2eb2.STEP',
    '2022-07-07T09:38:46',
    ( '' ),
    ( '' ),
    'SwSTEP 2.0',
    'SolidWorks 2019',
    '' );
FILE_SCHEMA (( 'CONFIG_CONTROL_DESIGN' ));
ENDSEC;

DATA;
#1 = CARTESIAN_POINT ( 'NONE',  ( 0.000000000000000000, 0.000000000000000000, 0.000000000000000000 ) ) ;
#2 = EDGE_CURVE ( 'NONE', #61, #176, #15, .T. ) ;
#3 = DIRECTION ( 'NONE',  ( 1.000000000000000000, 0.000000000000000000, -0.000000000000000000 ) ) ;
#4 = APPROVAL ( #177, 'NEURÈENÝ' ) ;
#5 = CIRCLE ( 'NONE', #23, 8.200000000000001066 ) ;
#6 = APPROVAL_PERSON_ORGANIZATION ( #111, #4, #83 ) ;
#7 = ORIENTED_EDGE ( 'NONE', *, *, #104, .F. ) ;
#8 = EDGE_LOOP ( 'NONE', ( #105, #66, #137, #277 ) ) ;
#9 = VERTEX_POINT ( 'NONE', #282 ) ;
#10 = PERSON_AND_ORGANIZATION ( #164, #244 ) ;
#11 = ORIENTED_EDGE ( 'NONE', *, *, #2, .T. ) ;
#12 = DATE_AND_TIME ( #155, #265 ) ;
#13 = VERTEX_POINT ( 'NONE', #284 ) ;
#14 = PERSON_AND_ORGANIZATION ( #164, #244 ) ;
#15 = CIRCLE ( 'NONE', #46, 11.00000000000000000 ) ;
#16 = CARTESIAN_POINT ( 'NONE',  ( 0.000000000000000000, 0.000000000000000000, 7.000000000000000000 ) ) ;
#17 = ADVANCED_FACE ( 'NONE', ( #43 ), #44, .T. ) ;
#18 = APPROVAL_STATUS ( 'not_yet_approved' ) ;
#19 = CARTESIAN_POINT ( 'NONE',  ( 0.000000000000000000, 0.000000000000000000, 7.200000000000011724 ) ) ;
#20 = COORDINATED_UNIVERSAL_TIME_OFFSET ( 1, 0, .AHEAD. ) ;
#21 = FACE_OUTER_BOUND ( 'NONE', #178, .T. ) ;
#22 = DIRECTION ( 'NONE',  ( 1.000000000000000000, 0.000000000000000000, 0.000000000000000000 ) ) ;
#23 = AXIS2_PLACEMENT_3D ( 'NONE', #286, #158, #38 ) ;
#24 = CARTESIAN_POINT ( 'NONE',  ( 0.000000000000000000, 0.000000000000000000, 207.0000000000000284 ) ) ;
#25 = FACE_OUTER_BOUND ( 'NONE', #208, .T. ) ;
#26 = CC_DESIGN_PERSON_AND_ORGANIZATION_ASSIGNMENT ( #10, #41, ( #102 ) ) ;
#27 = DIRECTION ( 'NONE',  ( 0.000000000000000000, 0.000000000000000000, 1.000000000000000000 ) ) ;
#28 = COORDINATED_UNIVERSAL_TIME_OFFSET ( 1, 0, .AHEAD. ) ;
#29 = EDGE_LOOP ( 'NONE', ( #231, #180 ) ) ;
#30 = AXIS2_PLACEMENT_3D ( 'NONE', #90, #184, #159 ) ;
#31 = ORIENTED_EDGE ( 'NONE', *, *, #197, .T. ) ;
#32 = AXIS2_PLACEMENT_3D ( 'NONE', #189, #45, #68 ) ;
#33 = ORIENTED_EDGE ( 'NONE', *, *, #124, .F. ) ;
#34 = AXIS2_PLACEMENT_3D ( 'NONE', #78, #125, #50 ) ;
#35 = PERSON_AND_ORGANIZATION_ROLE ( 'creator' ) ;
#36 = VERTEX_POINT ( 'NONE', #165 ) ;
#37 = EDGE_CURVE ( 'NONE', #175, #294, #227, .T. ) ;
#38 = DIRECTION ( 'NONE',  ( 1.000000000000000000, 0.000000000000000000, 0.000000000000000000 ) ) ;
#39 = APPROVAL_DATE_TIME ( #235, #203 ) ;
#40 = PLANE ( 'NONE',  #296 ) ;
#41 = PERSON_AND_ORGANIZATION_ROLE ( 'design_supplier' ) ;
#42 = APPROVAL_PERSON_ORGANIZATION ( #108, #203, #273 ) ;
#43 = FACE_OUTER_BOUND ( 'NONE', #112, .T. ) ;
#44 = CYLINDRICAL_SURFACE ( 'NONE', #98, 8.000000000000000000 ) ;
#45 = DIRECTION ( 'NONE',  ( -0.000000000000000000, -0.000000000000000000, -1.000000000000000000 ) ) ;
#46 = AXIS2_PLACEMENT_3D ( 'NONE', #173, #216, #121 ) ;
#47 = AXIS2_PLACEMENT_3D ( 'NONE', #16, #211, #22 ) ;
#48 = AXIS2_PLACEMENT_3D ( 'NONE', #225, #73, #266 ) ;
#49 = CARTESIAN_POINT ( 'NONE',  ( -8.000000000000000000, 0.000000000000000000, 7.200000000000011724 ) ) ;
#50 = DIRECTION ( 'NONE',  ( 1.000000000000000000, 0.000000000000000000, 0.000000000000000000 ) ) ;
#51 = AXIS2_PLACEMENT_3D ( 'NONE', #238, #242, #243 ) ;
#52 = CARTESIAN_POINT ( 'NONE',  ( 0.000000000000000000, 0.000000000000000000, 7.000000000000000000 ) ) ;
#53 = PRODUCT_DEFINITION_SHAPE ( 'NONE', 'NONE',  #259 ) ;
#54 = LOCAL_TIME ( 11, 38, 46.00000000000000000, #20 ) ;
#55 = EDGE_CURVE ( 'NONE', #13, #274, #92, .T. ) ;
#56 = DIRECTION ( 'NONE',  ( 1.000000000000000000, 0.000000000000000000, 0.000000000000000000 ) ) ;
#57 = ORIENTED_EDGE ( 'NONE', *, *, #135, .F. ) ;
#58 = AXIS2_PLACEMENT_3D ( 'NONE', #52, #101, #226 ) ;
#59 = VERTEX_POINT ( 'NONE', #215 ) ;
#60 = ADVANCED_FACE ( 'NONE', ( #303, #161 ), #40, .T. ) ;
#61 = VERTEX_POINT ( 'NONE', #119 ) ;
#62 = PERSON_AND_ORGANIZATION_ROLE ( 'design_owner' ) ;
#63 = EDGE_LOOP ( 'NONE', ( #255, #103, #82, #201 ) ) ;
#64 = COORDINATED_UNIVERSAL_TIME_OFFSET ( 1, 0, .AHEAD. ) ;
#65 = ADVANCED_FACE ( 'NONE', ( #144 ), #185, .T. ) ;
#66 = ORIENTED_EDGE ( 'NONE', *, *, #143, .T. ) ;
#67 = DATE_AND_TIME ( #210, #213 ) ;
#68 = DIRECTION ( 'NONE',  ( 1.000000000000000000, 0.000000000000000000, 0.000000000000000000 ) ) ;
#69 = DIRECTION ( 'NONE',  ( 0.000000000000000000, 0.000000000000000000, 1.000000000000000000 ) ) ;
#70 = LOCAL_TIME ( 11, 38, 46.00000000000000000, #64 ) ;
#71 = CARTESIAN_POINT ( 'NONE',  ( 0.000000000000000000, 0.000000000000000000, 7.000000000000000000 ) ) ;
#72 = DIRECTION ( 'NONE',  ( -0.000000000000000000, -0.000000000000000000, -1.000000000000000000 ) ) ;
#73 = DIRECTION ( 'NONE',  ( 0.000000000000000000, 0.000000000000000000, 1.000000000000000000 ) ) ;
#74 = VECTOR ( 'NONE', #298, 1000.000000000000000 ) ;
#75 =( NAMED_UNIT ( * ) PLANE_ANGLE_UNIT ( ) SI_UNIT ( $, .RADIAN. ) );
#76 = DIRECTION ( 'NONE',  ( 0.000000000000000000, 0.000000000000000000, 1.000000000000000000 ) ) ;
#77 = CC_DESIGN_PERSON_AND_ORGANIZATION_ASSIGNMENT ( #245, #62, ( #95 ) ) ;
#78 = CARTESIAN_POINT ( 'NONE',  ( 0.000000000000000000, 0.000000000000000000, 7.200000000000011724 ) ) ;
#79 = LOCAL_TIME ( 11, 38, 46.00000000000000000, #86 ) ;
#80 = CC_DESIGN_APPROVAL ( #4, ( #188 ) ) ;
#81 = ORIENTED_EDGE ( 'NONE', *, *, #241, .F. ) ;
#82 = ORIENTED_EDGE ( 'NONE', *, *, #151, .T. ) ;
#83 = APPROVAL_ROLE ( '' ) ;
#84 = EDGE_LOOP ( 'NONE', ( #271, #154, #110, #11 ) ) ;
#85 = ADVANCED_FACE ( 'NONE', ( #21 ), #260, .T. ) ;
#86 = COORDINATED_UNIVERSAL_TIME_OFFSET ( 1, 0, .AHEAD. ) ;
#87 = ORIENTED_EDGE ( 'NONE', *, *, #2, .F. ) ;
#88 = VECTOR ( 'NONE', #239, 1000.000000000000000 ) ;
#89 = APPROVAL_DATE_TIME ( #67, #4 ) ;
#90 = CARTESIAN_POINT ( 'NONE',  ( 0.000000000000000000, 0.000000000000000000, 7.200000000000011724 ) ) ;
#91 = CARTESIAN_POINT ( 'NONE',  ( 0.000000000000000000, 0.000000000000000000, 7.000000000000000000 ) ) ;
#92 = LINE ( 'NONE', #186, #262 ) ;
#93 = DIRECTION ( 'NONE',  ( 1.000000000000000000, 0.000000000000000000, -0.000000000000000000 ) ) ;
#94 = DIRECTION ( 'NONE',  ( 1.224646799147353207E-16, 1.000000000000000000, -0.000000000000000000 ) ) ;
#95 = PRODUCT ( '2eb2', '2eb2', '', ( #166 ) ) ;
#96 = ADVANCED_FACE ( 'NONE', ( #302 ), #133, .F. ) ;
#97 = CARTESIAN_POINT ( 'NONE',  ( 11.00000000000000000, 1.347111479062088405E-15, 0.000000000000000000 ) ) ;
#98 = AXIS2_PLACEMENT_3D ( 'NONE', #141, #72, #218 ) ;
#99 = CIRCLE ( 'NONE', #304, 8.000000000000000000 ) ;
#100 = DIRECTION ( 'NONE',  ( 0.000000000000000000, 0.000000000000000000, 1.000000000000000000 ) ) ;
#101 = DIRECTION ( 'NONE',  ( -0.000000000000000000, -0.000000000000000000, -1.000000000000000000 ) ) ;
#102 = PRODUCT_DEFINITION_FORMATION_WITH_SPECIFIED_SOURCE ( 'LIBOVOLNÝ', '', #95, .NOT_KNOWN. ) ;
#103 = ORIENTED_EDGE ( 'NONE', *, *, #109, .T. ) ;
#104 = EDGE_CURVE ( 'NONE', #59, #294, #291, .T. ) ;
#105 = ORIENTED_EDGE ( 'NONE', *, *, #118, .F. ) ;
#106 = EDGE_LOOP ( 'NONE', ( #252, #131, #57, #156 ) ) ;
#107 = AXIS2_PLACEMENT_3D ( 'NONE', #24, #172, #191 ) ;
#108 = PERSON_AND_ORGANIZATION ( #164, #244 ) ;
#109 = EDGE_CURVE ( 'NONE', #9, #175, #256, .T. ) ;
#110 = ORIENTED_EDGE ( 'NONE', *, *, #169, .T. ) ;
#111 = PERSON_AND_ORGANIZATION ( #164, #244 ) ;
#112 = EDGE_LOOP ( 'NONE', ( #250, #153, #295, #228 ) ) ;
#113 = COORDINATED_UNIVERSAL_TIME_OFFSET ( 1, 0, .AHEAD. ) ;
#114 = CARTESIAN_POINT ( 'NONE',  ( 11.00000000000000000, 1.347111479062088405E-15, 7.000000000000000000 ) ) ;
#115 = PERSON_AND_ORGANIZATION_ROLE ( 'classification_officer' ) ;
#116 = CARTESIAN_POINT ( 'NONE',  ( 8.000000000000000000, 9.797174393178825657E-16, 7.200000000000011724 ) ) ;
#117 = PERSON_AND_ORGANIZATION ( #164, #244 ) ;
#118 = EDGE_CURVE ( 'NONE', #36, #204, #134, .T. ) ;
#119 = CARTESIAN_POINT ( 'NONE',  ( -11.00000000000000000, 0.000000000000000000, 0.000000000000000000 ) ) ;
#120 = AXIS2_PLACEMENT_3D ( 'NONE', #301, #240, #163 ) ;
#121 = DIRECTION ( 'NONE',  ( 1.000000000000000000, 0.000000000000000000, 0.000000000000000000 ) ) ;
#122 = AXIS2_PLACEMENT_3D ( 'NONE', #195, #147, #194 ) ;
#123 = CARTESIAN_POINT ( 'NONE',  ( -8.200000000000001066, 1.004210375300829674E-15, 7.200000000000011724 ) ) ;
#124 = EDGE_CURVE ( 'NONE', #274, #59, #198, .T. ) ;
#125 = DIRECTION ( 'NONE',  ( 0.000000000000000000, 0.000000000000000000, 1.000000000000000000 ) ) ;
#126 = CC_DESIGN_PERSON_AND_ORGANIZATION_ASSIGNMENT ( #136, #297, ( #259 ) ) ;
#127 = CARTESIAN_POINT ( 'NONE',  ( 0.000000000000000000, 0.000000000000000000, 207.0000000000000284 ) ) ;
#128 = CARTESIAN_POINT ( 'NONE',  ( 0.000000000000000000, 0.000000000000000000, 7.200000000000011724 ) ) ;
#129 = CLOSED_SHELL ( 'NONE', ( #96, #183, #65, #293, #60, #263, #17, #85, #236 ) ) ;
#130 = APPROVAL ( #179, 'NEURÈENÝ' ) ;
#131 = ORIENTED_EDGE ( 'NONE', *, *, #124, .T. ) ;
#132 = DESIGN_CONTEXT ( 'detailed design', #209, 'design' ) ;
#133 = TOROIDAL_SURFACE ( 'NONE', #171, 8.200000000000001066, 0.2000000000000000111 ) ;
#134 = CIRCLE ( 'NONE', #47, 11.00000000000000000 ) ;
#135 = EDGE_CURVE ( 'NONE', #294, #59, #5, .T. ) ;
#136 = PERSON_AND_ORGANIZATION ( #164, #244 ) ;
#137 = ORIENTED_EDGE ( 'NONE', *, *, #241, .T. ) ;
#138 = LINE ( 'NONE', #114, #74 ) ;
#139 = APPROVAL_DATE_TIME ( #205, #130 ) ;
#140 = CARTESIAN_POINT ( 'NONE',  ( -11.00000000000000000, 0.000000000000000000, 7.000000000000000000 ) ) ;
#141 = CARTESIAN_POINT ( 'NONE',  ( 0.000000000000000000, 0.000000000000000000, 207.0000000000000284 ) ) ;
#142 = DIRECTION ( 'NONE',  ( -0.000000000000000000, -0.000000000000000000, -1.000000000000000000 ) ) ;
#143 = EDGE_CURVE ( 'NONE', #36, #176, #138, .T. ) ;
#144 = FACE_OUTER_BOUND ( 'NONE', #8, .T. ) ;
#145 = AXIS2_PLACEMENT_3D ( 'NONE', #123, #94, #190 ) ;
#146 = CARTESIAN_POINT ( 'NONE',  ( 8.200000000000001066, 0.000000000000000000, 7.000000000000006217 ) ) ;
#147 = DIRECTION ( 'NONE',  ( 0.000000000000000000, 0.000000000000000000, 1.000000000000000000 ) ) ;
#148 = FACE_OUTER_BOUND ( 'NONE', #84, .T. ) ;
#149 = VECTOR ( 'NONE', #258, 1000.000000000000000 ) ;
#150 = CYLINDRICAL_SURFACE ( 'NONE', #58, 11.00000000000000000 ) ;
#151 = EDGE_CURVE ( 'NONE', #175, #274, #254, .T. ) ;
#152 = DATE_AND_TIME ( #160, #54 ) ;
#153 = ORIENTED_EDGE ( 'NONE', *, *, #197, .F. ) ;
#154 = ORIENTED_EDGE ( 'NONE', *, *, #289, .F. ) ;
#155 = CALENDAR_DATE ( 2022, 7, 7 ) ;
#156 = ORIENTED_EDGE ( 'NONE', *, *, #37, .F. ) ;
#157 = DATE_TIME_ROLE ( 'classification_date' ) ;
#158 = DIRECTION ( 'NONE',  ( -0.000000000000000000, -0.000000000000000000, -1.000000000000000000 ) ) ;
#159 = DIRECTION ( 'NONE',  ( 1.000000000000000000, 0.000000000000000000, 0.000000000000000000 ) ) ;
#160 = CALENDAR_DATE ( 2022, 7, 7 ) ;
#161 = FACE_OUTER_BOUND ( 'NONE', #29, .T. ) ;
#162 = AXIS2_PLACEMENT_3D ( 'NONE', #1, #292, #3 ) ;
#163 = DIRECTION ( 'NONE',  ( 0.000000000000000000, 0.000000000000000000, -1.000000000000000000 ) ) ;
#164 = PERSON ( 'NEURÈENÝ', 'NEURÈENÝ', 'NEURÈENÝ', ('NEURÈENÝ'), ('NEURÈENÝ'), ('NEURÈENÝ') ) ;
#165 = CARTESIAN_POINT ( 'NONE',  ( 11.00000000000000000, 1.347111479062088405E-15, 7.000000000000000000 ) ) ;
#166 = MECHANICAL_CONTEXT ( 'NONE', #268, 'mechanical' ) ;
#167 = PLANE ( 'NONE',  #162 ) ;
#168 = CARTESIAN_POINT ( 'NONE',  ( 0.000000000000000000, 0.000000000000000000, 7.000000000000000000 ) ) ;
#169 = EDGE_CURVE ( 'NONE', #204, #61, #257, .T. ) ;
#170 = DIRECTION ( 'NONE',  ( 1.000000000000000000, 0.000000000000000000, 0.000000000000000000 ) ) ;
#171 = AXIS2_PLACEMENT_3D ( 'NONE', #19, #69, #220 ) ;
#172 = DIRECTION ( 'NONE',  ( -0.000000000000000000, -0.000000000000000000, -1.000000000000000000 ) ) ;
#173 = CARTESIAN_POINT ( 'NONE',  ( 0.000000000000000000, 0.000000000000000000, 0.000000000000000000 ) ) ;
#174 = AXIS2_PLACEMENT_3D ( 'NONE', #307, #100, #269 ) ;
#175 = VERTEX_POINT ( 'NONE', #116 ) ;
#176 = VERTEX_POINT ( 'NONE', #97 ) ;
#177 = APPROVAL_STATUS ( 'not_yet_approved' ) ;
#178 = EDGE_LOOP ( 'NONE', ( #31, #206 ) ) ;
#179 = APPROVAL_STATUS ( 'not_yet_approved' ) ;
#180 = ORIENTED_EDGE ( 'NONE', *, *, #118, .T. ) ;
#181 = CIRCLE ( 'NONE', #48, 11.00000000000000000 ) ;
#182 = APPROVAL_ROLE ( '' ) ;
#183 = ADVANCED_FACE ( 'NONE', ( #196 ), #248, .T. ) ;
#184 = DIRECTION ( 'NONE',  ( 0.000000000000000000, 0.000000000000000000, 1.000000000000000000 ) ) ;
#185 = CYLINDRICAL_SURFACE ( 'NONE', #281, 11.00000000000000000 ) ;
#186 = CARTESIAN_POINT ( 'NONE',  ( -8.000000000000000000, 0.000000000000000000, 207.0000000000000284 ) ) ;
#187 = CC_DESIGN_APPROVAL ( #203, ( #259 ) ) ;
#188 = SECURITY_CLASSIFICATION ( '', '', #278 ) ;
#189 = CARTESIAN_POINT ( 'NONE',  ( 0.000000000000000000, 0.000000000000000000, 7.000000000000000000 ) ) ;
#190 = DIRECTION ( 'NONE',  ( -1.000000000000000000, 1.224646799147353207E-16, 0.000000000000000000 ) ) ;
#191 = DIRECTION ( 'NONE',  ( -1.000000000000000000, 0.000000000000000000, 0.000000000000000000 ) ) ;
#192 =( GEOMETRIC_REPRESENTATION_CONTEXT ( 3 ) GLOBAL_UNCERTAINTY_ASSIGNED_CONTEXT ( ( #230 ) ) GLOBAL_UNIT_ASSIGNED_CONTEXT ( ( #288, #75, #267 ) ) REPRESENTATION_CONTEXT ( 'NONE', 'WORKASPACE' ) );
#193 = APPROVAL_PERSON_ORGANIZATION ( #117, #130, #182 ) ;
#194 = DIRECTION ( 'NONE',  ( 1.000000000000000000, 0.000000000000000000, 0.000000000000000000 ) ) ;
#195 = CARTESIAN_POINT ( 'NONE',  ( 0.000000000000000000, 0.000000000000000000, 207.0000000000000284 ) ) ;
#196 = FACE_OUTER_BOUND ( 'NONE', #63, .T. ) ;
#197 = EDGE_CURVE ( 'NONE', #13, #9, #99, .T. ) ;
#198 = CIRCLE ( 'NONE', #145, 0.2000000000000005107 ) ;
#199 = TOROIDAL_SURFACE ( 'NONE', #246, 8.200000000000001066, 0.2000000000000000111 ) ;
#200 = APPLICATION_PROTOCOL_DEFINITION ( 'international standard', 'config_control_design', 1994, #268 ) ;
#201 = ORIENTED_EDGE ( 'NONE', *, *, #55, .F. ) ;
#202 = ORIENTED_EDGE ( 'NONE', *, *, #37, .T. ) ;
#203 = APPROVAL ( #18, 'NEURÈENÝ' ) ;
#204 = VERTEX_POINT ( 'NONE', #222 ) ;
#205 = DATE_AND_TIME ( #214, #70 ) ;
#206 = ORIENTED_EDGE ( 'NONE', *, *, #305, .T. ) ;
#207 = SHAPE_DEFINITION_REPRESENTATION ( #53, #290 ) ;
#208 = EDGE_LOOP ( 'NONE', ( #87, #81 ) ) ;
#209 = APPLICATION_CONTEXT ( 'configuration controlled 3d designs of mechanical parts and assemblies' ) ;
#210 = CALENDAR_DATE ( 2022, 7, 7 ) ;
#211 = DIRECTION ( 'NONE',  ( 0.000000000000000000, 0.000000000000000000, 1.000000000000000000 ) ) ;
#212 = CIRCLE ( 'NONE', #219, 11.00000000000000000 ) ;
#213 = LOCAL_TIME ( 11, 38, 46.00000000000000000, #28 ) ;
#214 = CALENDAR_DATE ( 2022, 7, 7 ) ;
#215 = CARTESIAN_POINT ( 'NONE',  ( -8.200000000000001066, 1.004210375300829674E-15, 7.000000000000006217 ) ) ;
#216 = DIRECTION ( 'NONE',  ( 0.000000000000000000, 0.000000000000000000, 1.000000000000000000 ) ) ;
#217 = CC_DESIGN_PERSON_AND_ORGANIZATION_ASSIGNMENT ( #14, #35, ( #102 ) ) ;
#218 = DIRECTION ( 'NONE',  ( -1.000000000000000000, 0.000000000000000000, 0.000000000000000000 ) ) ;
#219 = AXIS2_PLACEMENT_3D ( 'NONE', #168, #223, #170 ) ;
#220 = DIRECTION ( 'NONE',  ( 1.000000000000000000, 0.000000000000000000, 0.000000000000000000 ) ) ;
#221 = MANIFOLD_SOLID_BREP ( 'Zaoblit1', #129 ) ;
#222 = CARTESIAN_POINT ( 'NONE',  ( -11.00000000000000000, 0.000000000000000000, 7.000000000000000000 ) ) ;
#223 = DIRECTION ( 'NONE',  ( 0.000000000000000000, 0.000000000000000000, 1.000000000000000000 ) ) ;
#224 = EDGE_CURVE ( 'NONE', #274, #175, #233, .T. ) ;
#225 = CARTESIAN_POINT ( 'NONE',  ( 0.000000000000000000, 0.000000000000000000, 0.000000000000000000 ) ) ;
#226 = DIRECTION ( 'NONE',  ( -1.000000000000000000, 0.000000000000000000, 0.000000000000000000 ) ) ;
#227 = CIRCLE ( 'NONE', #120, 0.1999999999999996503 ) ;
#228 = ORIENTED_EDGE ( 'NONE', *, *, #224, .T. ) ;
#229 = EDGE_LOOP ( 'NONE', ( #234, #251 ) ) ;
#230 = UNCERTAINTY_MEASURE_WITH_UNIT (LENGTH_MEASURE( 1.000000000000000082E-05 ), #288, 'distance_accuracy_value', 'NONE');
#231 = ORIENTED_EDGE ( 'NONE', *, *, #289, .T. ) ;
#232 = APPLICATION_PROTOCOL_DEFINITION ( 'international standard', 'config_control_design', 1994, #209 ) ;
#233 = CIRCLE ( 'NONE', #34, 8.000000000000000000 ) ;
#234 = ORIENTED_EDGE ( 'NONE', *, *, #135, .T. ) ;
#235 = DATE_AND_TIME ( #275, #79 ) ;
#236 = ADVANCED_FACE ( 'NONE', ( #264 ), #199, .F. ) ;
#237 = ORIENTED_EDGE ( 'NONE', *, *, #151, .F. ) ;
#238 = CARTESIAN_POINT ( 'NONE',  ( 0.000000000000000000, 0.000000000000000000, 207.0000000000000284 ) ) ;
#239 = DIRECTION ( 'NONE',  ( -0.000000000000000000, -0.000000000000000000, -1.000000000000000000 ) ) ;
#240 = DIRECTION ( 'NONE',  ( 0.000000000000000000, -1.000000000000000000, 0.000000000000000000 ) ) ;
#241 = EDGE_CURVE ( 'NONE', #176, #61, #181, .T. ) ;
#242 = DIRECTION ( 'NONE',  ( 0.000000000000000000, 0.000000000000000000, 1.000000000000000000 ) ) ;
#243 = DIRECTION ( 'NONE',  ( 1.000000000000000000, 0.000000000000000000, -0.000000000000000000 ) ) ;
#244 = ORGANIZATION ( 'NEURÈENÝ', 'NEURÈENÝ', '' ) ;
#245 = PERSON_AND_ORGANIZATION ( #164, #244 ) ;
#246 = AXIS2_PLACEMENT_3D ( 'NONE', #128, #27, #287 ) ;
#247 = CC_DESIGN_SECURITY_CLASSIFICATION ( #188, ( #102 ) ) ;
#248 = CYLINDRICAL_SURFACE ( 'NONE', #107, 8.000000000000000000 ) ;
#249 = DATE_TIME_ROLE ( 'creation_date' ) ;
#250 = ORIENTED_EDGE ( 'NONE', *, *, #109, .F. ) ;
#251 = ORIENTED_EDGE ( 'NONE', *, *, #104, .T. ) ;
#252 = ORIENTED_EDGE ( 'NONE', *, *, #224, .F. ) ;
#253 = CC_DESIGN_DATE_AND_TIME_ASSIGNMENT ( #152, #249, ( #259 ) ) ;
#254 = CIRCLE ( 'NONE', #30, 8.000000000000000000 ) ;
#255 = ORIENTED_EDGE ( 'NONE', *, *, #305, .F. ) ;
#256 = LINE ( 'NONE', #279, #149 ) ;
#257 = LINE ( 'NONE', #140, #88 ) ;
#258 = DIRECTION ( 'NONE',  ( -0.000000000000000000, -0.000000000000000000, -1.000000000000000000 ) ) ;
#259 = PRODUCT_DEFINITION ( 'NEZNÁMÝ', '', #102, #132 ) ;
#260 = PLANE ( 'NONE',  #51 ) ;
#261 = DIRECTION ( 'NONE',  ( -0.000000000000000000, -0.000000000000000000, -1.000000000000000000 ) ) ;
#262 = VECTOR ( 'NONE', #142, 1000.000000000000000 ) ;
#263 = ADVANCED_FACE ( 'NONE', ( #25 ), #167, .F. ) ;
#264 = FACE_OUTER_BOUND ( 'NONE', #272, .T. ) ;
#265 = LOCAL_TIME ( 11, 38, 46.00000000000000000, #113 ) ;
#266 = DIRECTION ( 'NONE',  ( 1.000000000000000000, 0.000000000000000000, 0.000000000000000000 ) ) ;
#267 =( NAMED_UNIT ( * ) SI_UNIT ( $, .STERADIAN. ) SOLID_ANGLE_UNIT ( ) );
#268 = APPLICATION_CONTEXT ( 'configuration controlled 3d designs of mechanical parts and assemblies' ) ;
#269 = DIRECTION ( 'NONE',  ( 1.000000000000000000, 0.000000000000000000, 0.000000000000000000 ) ) ;
#270 = PRODUCT_RELATED_PRODUCT_CATEGORY ( 'detail', '', ( #95 ) ) ;
#271 = ORIENTED_EDGE ( 'NONE', *, *, #143, .F. ) ;
#272 = EDGE_LOOP ( 'NONE', ( #33, #237, #202, #7 ) ) ;
#273 = APPROVAL_ROLE ( '' ) ;
#274 = VERTEX_POINT ( 'NONE', #49 ) ;
#275 = CALENDAR_DATE ( 2022, 7, 7 ) ;
#276 = CIRCLE ( 'NONE', #122, 8.000000000000000000 ) ;
#277 = ORIENTED_EDGE ( 'NONE', *, *, #169, .F. ) ;
#278 = SECURITY_CLASSIFICATION_LEVEL ( 'unclassified' ) ;
#279 = CARTESIAN_POINT ( 'NONE',  ( 8.000000000000000000, 9.797174393178825657E-16, 207.0000000000000284 ) ) ;
#280 = DIRECTION ( 'NONE',  ( -1.000000000000000000, 0.000000000000000000, 0.000000000000000000 ) ) ;
#281 = AXIS2_PLACEMENT_3D ( 'NONE', #71, #261, #280 ) ;
#282 = CARTESIAN_POINT ( 'NONE',  ( 8.000000000000000000, 9.797174393178825657E-16, 207.0000000000000284 ) ) ;
#283 = CC_DESIGN_APPROVAL ( #130, ( #102 ) ) ;
#284 = CARTESIAN_POINT ( 'NONE',  ( -8.000000000000000000, 0.000000000000000000, 207.0000000000000284 ) ) ;
#285 = CC_DESIGN_PERSON_AND_ORGANIZATION_ASSIGNMENT ( #299, #115, ( #188 ) ) ;
#286 = CARTESIAN_POINT ( 'NONE',  ( 0.000000000000000000, 0.000000000000000000, 7.000000000000000000 ) ) ;
#287 = DIRECTION ( 'NONE',  ( 1.000000000000000000, 0.000000000000000000, 0.000000000000000000 ) ) ;
#288 =( LENGTH_UNIT ( ) NAMED_UNIT ( * ) SI_UNIT ( .MILLI., .METRE. ) );
#289 = EDGE_CURVE ( 'NONE', #204, #36, #212, .T. ) ;
#290 = ADVANCED_BREP_SHAPE_REPRESENTATION ( '2eb2', ( #221, #174 ), #192 ) ;
#291 = CIRCLE ( 'NONE', #32, 8.200000000000001066 ) ;
#292 = DIRECTION ( 'NONE',  ( 0.000000000000000000, 0.000000000000000000, 1.000000000000000000 ) ) ;
#293 = ADVANCED_FACE ( 'NONE', ( #148 ), #150, .T. ) ;
#294 = VERTEX_POINT ( 'NONE', #146 ) ;
#295 = ORIENTED_EDGE ( 'NONE', *, *, #55, .T. ) ;
#296 = AXIS2_PLACEMENT_3D ( 'NONE', #91, #306, #93 ) ;
#297 = PERSON_AND_ORGANIZATION_ROLE ( 'creator' ) ;
#298 = DIRECTION ( 'NONE',  ( -0.000000000000000000, -0.000000000000000000, -1.000000000000000000 ) ) ;
#299 = PERSON_AND_ORGANIZATION ( #164, #244 ) ;
#300 = CC_DESIGN_DATE_AND_TIME_ASSIGNMENT ( #12, #157, ( #188 ) ) ;
#301 = CARTESIAN_POINT ( 'NONE',  ( 8.200000000000001066, 0.000000000000000000, 7.200000000000011724 ) ) ;
#302 = FACE_OUTER_BOUND ( 'NONE', #106, .T. ) ;
#303 = FACE_BOUND ( 'NONE', #229, .T. ) ;
#304 = AXIS2_PLACEMENT_3D ( 'NONE', #127, #76, #56 ) ;
#305 = EDGE_CURVE ( 'NONE', #9, #13, #276, .T. ) ;
#306 = DIRECTION ( 'NONE',  ( 0.000000000000000000, 0.000000000000000000, 1.000000000000000000 ) ) ;
#307 = CARTESIAN_POINT ( 'NONE',  ( 0.000000000000000000, 0.000000000000000000, 0.000000000000000000 ) ) ;
ENDSEC;
END-ISO-10303-21;
