ISO-10303-21;
HEADER;
FILE_DESCRIPTION (( 'STEP AP203' ),
    '1' );
FILE_NAME ('d01b.STEP',
    '2022-07-07T09:52:46',
    ( '' ),
    ( '' ),
    'SwSTEP 2.0',
    'SolidWorks 2019',
    '' );
FILE_SCHEMA (( 'CONFIG_CONTROL_DESIGN' ));
ENDSEC;

DATA;
#1 = DIRECTION ( 'NONE',  ( 0.000000000000000000, -1.000000000000000000, 0.000000000000000000 ) ) ;
#2 = APPROVAL_DATE_TIME ( #187, #203 ) ;
#3 = CARTESIAN_POINT ( 'NONE',  ( 0.000000000000000000, 0.000000000000000000, 5.200000000000009948 ) ) ;
#4 = CIRCLE ( 'NONE', #263, 0.1999999999999996503 ) ;
#5 = LOCAL_TIME ( 11, 52, 46.00000000000000000, #166 ) ;
#6 = CC_DESIGN_PERSON_AND_ORGANIZATION_ASSIGNMENT ( #209, #288, ( #145 ) ) ;
#7 = EDGE_LOOP ( 'NONE', ( #130, #91, #185, #156 ) ) ;
#8 = ORIENTED_EDGE ( 'NONE', *, *, #222, .F. ) ;
#9 = TOROIDAL_SURFACE ( 'NONE', #248, 5.300000000000000711, 0.2000000000000000111 ) ;
#10 = DESIGN_CONTEXT ( 'detailed design', #165, 'design' ) ;
#11 = ORIENTED_EDGE ( 'NONE', *, *, #233, .F. ) ;
#12 = CIRCLE ( 'NONE', #127, 5.100000000000001421 ) ;
#13 = EDGE_LOOP ( 'NONE', ( #84, #110 ) ) ;
#14 = ORIENTED_EDGE ( 'NONE', *, *, #267, .T. ) ;
#15 = CC_DESIGN_PERSON_AND_ORGANIZATION_ASSIGNMENT ( #49, #141, ( #81 ) ) ;
#16 = DIRECTION ( 'NONE',  ( 1.000000000000000000, 0.000000000000000000, -0.000000000000000000 ) ) ;
#17 = PRODUCT_RELATED_PRODUCT_CATEGORY ( 'detail', '', ( #81 ) ) ;
#18 = CIRCLE ( 'NONE', #65, 5.100000000000001421 ) ;
#19 = CARTESIAN_POINT ( 'NONE',  ( -8.000000000000000000, 0.000000000000000000, 5.000000000000000000 ) ) ;
#20 = PERSON_AND_ORGANIZATION ( #241, #158 ) ;
#21 = ORIENTED_EDGE ( 'NONE', *, *, #219, .T. ) ;
#22 = PERSON_AND_ORGANIZATION ( #241, #158 ) ;
#23 = DIRECTION ( 'NONE',  ( 0.000000000000000000, 0.000000000000000000, 1.000000000000000000 ) ) ;
#24 = DIRECTION ( 'NONE',  ( 1.000000000000000000, 0.000000000000000000, 0.000000000000000000 ) ) ;
#25 = APPROVAL_PERSON_ORGANIZATION ( #20, #28, #139 ) ;
#26 = ADVANCED_FACE ( 'NONE', ( #254 ), #278, .T. ) ;
#27 = DIRECTION ( 'NONE',  ( -1.000000000000000000, 0.000000000000000000, 0.000000000000000000 ) ) ;
#28 = APPROVAL ( #57, 'NEURÈENÝ' ) ;
#29 = AXIS2_PLACEMENT_3D ( 'NONE', #136, #226, #16 ) ;
#30 = DIRECTION ( 'NONE',  ( 1.000000000000000000, 0.000000000000000000, -0.000000000000000000 ) ) ;
#31 = COORDINATED_UNIVERSAL_TIME_OFFSET ( 1, 0, .AHEAD. ) ;
#32 = PLANE ( 'NONE',  #94 ) ;
#33 = DATE_AND_TIME ( #257, #5 ) ;
#34 = VERTEX_POINT ( 'NONE', #183 ) ;
#35 = EDGE_LOOP ( 'NONE', ( #118, #140 ) ) ;
#36 = VERTEX_POINT ( 'NONE', #186 ) ;
#37 = LOCAL_TIME ( 11, 52, 46.00000000000000000, #234 ) ;
#38 = EDGE_LOOP ( 'NONE', ( #256, #199, #14, #296 ) ) ;
#39 = ADVANCED_FACE ( 'NONE', ( #96 ), #9, .F. ) ;
#40 = LINE ( 'NONE', #230, #251 ) ;
#41 = CLOSED_SHELL ( 'NONE', ( #160, #26, #229, #51, #79, #200, #157, #135, #39 ) ) ;
#42 = CARTESIAN_POINT ( 'NONE',  ( -5.300000000000000711, 6.490628035480971924E-16, 5.000000000000005329 ) ) ;
#43 = DATE_TIME_ROLE ( 'classification_date' ) ;
#44 = AXIS2_PLACEMENT_3D ( 'NONE', #175, #103, #280 ) ;
#45 = FACE_BOUND ( 'NONE', #13, .T. ) ;
#46 = DIRECTION ( 'NONE',  ( 0.000000000000000000, 0.000000000000000000, 1.000000000000000000 ) ) ;
#47 = DIRECTION ( 'NONE',  ( -1.000000000000000000, 0.000000000000000000, 0.000000000000000000 ) ) ;
#48 = TOROIDAL_SURFACE ( 'NONE', #151, 5.300000000000000711, 0.2000000000000000111 ) ;
#49 = PERSON_AND_ORGANIZATION ( #241, #158 ) ;
#50 = CARTESIAN_POINT ( 'NONE',  ( 0.000000000000000000, 0.000000000000000000, 5.200000000000009948 ) ) ;
#51 = ADVANCED_FACE ( 'NONE', ( #134 ), #188, .T. ) ;
#52 = CARTESIAN_POINT ( 'NONE',  ( 0.000000000000000000, 0.000000000000000000, 5.000000000000000000 ) ) ;
#53 = CC_DESIGN_APPROVAL ( #55, ( #145 ) ) ;
#54 = DIRECTION ( 'NONE',  ( 1.000000000000000000, 0.000000000000000000, 0.000000000000000000 ) ) ;
#55 = APPROVAL ( #196, 'NEURÈENÝ' ) ;
#56 = DIRECTION ( 'NONE',  ( 0.000000000000000000, 0.000000000000000000, 1.000000000000000000 ) ) ;
#57 = APPROVAL_STATUS ( 'not_yet_approved' ) ;
#58 =( LENGTH_UNIT ( ) NAMED_UNIT ( * ) SI_UNIT ( .MILLI., .METRE. ) );
#59 = DIRECTION ( 'NONE',  ( 1.000000000000000000, 0.000000000000000000, 0.000000000000000000 ) ) ;
#60 = EDGE_CURVE ( 'NONE', #34, #153, #71, .T. ) ;
#61 = AXIS2_PLACEMENT_3D ( 'NONE', #211, #238, #27 ) ;
#62 = ORIENTED_EDGE ( 'NONE', *, *, #170, .F. ) ;
#63 = EDGE_CURVE ( 'NONE', #92, #34, #174, .T. ) ;
#64 = ORIENTED_EDGE ( 'NONE', *, *, #237, .F. ) ;
#65 = AXIS2_PLACEMENT_3D ( 'NONE', #122, #192, #99 ) ;
#66 = DIRECTION ( 'NONE',  ( -1.000000000000000000, 0.000000000000000000, 0.000000000000000000 ) ) ;
#67 = DIRECTION ( 'NONE',  ( 0.000000000000000000, 0.000000000000000000, 1.000000000000000000 ) ) ;
#68 = ORIENTED_EDGE ( 'NONE', *, *, #237, .T. ) ;
#69 = EDGE_CURVE ( 'NONE', #249, #271, #40, .T. ) ;
#70 = AXIS2_PLACEMENT_3D ( 'NONE', #146, #124, #212 ) ;
#71 = LINE ( 'NONE', #19, #297 ) ;
#72 = MECHANICAL_CONTEXT ( 'NONE', #306, 'mechanical' ) ;
#73 = DIRECTION ( 'NONE',  ( -0.000000000000000000, -0.000000000000000000, -1.000000000000000000 ) ) ;
#74 = DIRECTION ( 'NONE',  ( 1.000000000000000000, 0.000000000000000000, 0.000000000000000000 ) ) ;
#75 = CARTESIAN_POINT ( 'NONE',  ( 5.300000000000000711, 0.000000000000000000, 5.200000000000009948 ) ) ;
#76 = AXIS2_PLACEMENT_3D ( 'NONE', #52, #262, #54 ) ;
#77 = CC_DESIGN_PERSON_AND_ORGANIZATION_ASSIGNMENT ( #245, #86, ( #145 ) ) ;
#78 = DATE_AND_TIME ( #253, #37 ) ;
#79 = ADVANCED_FACE ( 'NONE', ( #45, #299 ), #133, .T. ) ;
#80 = CARTESIAN_POINT ( 'NONE',  ( 0.000000000000000000, 0.000000000000000000, 0.000000000000000000 ) ) ;
#81 = PRODUCT ( 'd01b', 'd01b', '', ( #72 ) ) ;
#82 = CALENDAR_DATE ( 2022, 7, 7 ) ;
#83 = CC_DESIGN_PERSON_AND_ORGANIZATION_ASSIGNMENT ( #176, #215, ( #115 ) ) ;
#84 = ORIENTED_EDGE ( 'NONE', *, *, #148, .T. ) ;
#85 =( GEOMETRIC_REPRESENTATION_CONTEXT ( 3 ) GLOBAL_UNCERTAINTY_ASSIGNED_CONTEXT ( ( #246 ) ) GLOBAL_UNIT_ASSIGNED_CONTEXT ( ( #58, #244, #286 ) ) REPRESENTATION_CONTEXT ( 'NONE', 'WORKASPACE' ) );
#86 = PERSON_AND_ORGANIZATION_ROLE ( 'design_supplier' ) ;
#87 = EDGE_CURVE ( 'NONE', #92, #36, #275, .T. ) ;
#88 = VERTEX_POINT ( 'NONE', #42 ) ;
#89 = PRODUCT_DEFINITION ( 'NEZNÁMÝ', '', #145, #10 ) ;
#90 = AXIS2_PLACEMENT_3D ( 'NONE', #285, #261, #173 ) ;
#91 = ORIENTED_EDGE ( 'NONE', *, *, #255, .F. ) ;
#92 = VERTEX_POINT ( 'NONE', #138 ) ;
#93 = ORIENTED_EDGE ( 'NONE', *, *, #69, .F. ) ;
#94 = AXIS2_PLACEMENT_3D ( 'NONE', #142, #98, #30 ) ;
#95 = PERSON_AND_ORGANIZATION ( #241, #158 ) ;
#96 = FACE_OUTER_BOUND ( 'NONE', #208, .T. ) ;
#97 = CARTESIAN_POINT ( 'NONE',  ( -5.100000000000001421, 0.000000000000000000, 205.0000000000000284 ) ) ;
#98 = DIRECTION ( 'NONE',  ( 0.000000000000000000, 0.000000000000000000, 1.000000000000000000 ) ) ;
#99 = DIRECTION ( 'NONE',  ( 1.000000000000000000, 0.000000000000000000, 0.000000000000000000 ) ) ;
#100 = AXIS2_PLACEMENT_3D ( 'NONE', #235, #56, #120 ) ;
#101 = CARTESIAN_POINT ( 'NONE',  ( -5.100000000000001421, 0.000000000000000000, 205.0000000000000284 ) ) ;
#102 = APPROVAL_ROLE ( '' ) ;
#103 = DIRECTION ( 'NONE',  ( 0.000000000000000000, 0.000000000000000000, 1.000000000000000000 ) ) ;
#104 = CARTESIAN_POINT ( 'NONE',  ( 0.000000000000000000, 0.000000000000000000, 0.000000000000000000 ) ) ;
#105 = APPROVAL_DATE_TIME ( #129, #28 ) ;
#106 = CC_DESIGN_APPROVAL ( #28, ( #89 ) ) ;
#107 = PRODUCT_DEFINITION_SHAPE ( 'NONE', 'NONE',  #89 ) ;
#108 = EDGE_LOOP ( 'NONE', ( #155, #152 ) ) ;
#109 = VERTEX_POINT ( 'NONE', #224 ) ;
#110 = ORIENTED_EDGE ( 'NONE', *, *, #233, .T. ) ;
#111 = VERTEX_POINT ( 'NONE', #206 ) ;
#112 = CARTESIAN_POINT ( 'NONE',  ( 0.000000000000000000, 0.000000000000000000, 205.0000000000000284 ) ) ;
#113 = ORIENTED_EDGE ( 'NONE', *, *, #69, .T. ) ;
#114 = CIRCLE ( 'NONE', #216, 5.300000000000000711 ) ;
#115 = SECURITY_CLASSIFICATION ( '', '', #221 ) ;
#116 = DIRECTION ( 'NONE',  ( -0.000000000000000000, -0.000000000000000000, -1.000000000000000000 ) ) ;
#117 = PERSON_AND_ORGANIZATION ( #241, #158 ) ;
#118 = ORIENTED_EDGE ( 'NONE', *, *, #255, .T. ) ;
#119 = COORDINATED_UNIVERSAL_TIME_OFFSET ( 1, 0, .AHEAD. ) ;
#120 = DIRECTION ( 'NONE',  ( 1.000000000000000000, 0.000000000000000000, 0.000000000000000000 ) ) ;
#121 = AXIS2_PLACEMENT_3D ( 'NONE', #104, #46, #59 ) ;
#122 = CARTESIAN_POINT ( 'NONE',  ( 0.000000000000000000, 0.000000000000000000, 205.0000000000000284 ) ) ;
#123 = CC_DESIGN_PERSON_AND_ORGANIZATION_ASSIGNMENT ( #117, #207, ( #89 ) ) ;
#124 = DIRECTION ( 'NONE',  ( 0.000000000000000000, 0.000000000000000000, 1.000000000000000000 ) ) ;
#125 = FACE_OUTER_BOUND ( 'NONE', #220, .T. ) ;
#126 = CALENDAR_DATE ( 2022, 7, 7 ) ;
#127 = AXIS2_PLACEMENT_3D ( 'NONE', #50, #144, #74 ) ;
#128 = CARTESIAN_POINT ( 'NONE',  ( -8.000000000000000000, 0.000000000000000000, 0.000000000000000000 ) ) ;
#129 = DATE_AND_TIME ( #82, #236 ) ;
#130 = ORIENTED_EDGE ( 'NONE', *, *, #87, .F. ) ;
#131 = ORIENTED_EDGE ( 'NONE', *, *, #274, .F. ) ;
#132 = CIRCLE ( 'NONE', #301, 5.300000000000000711 ) ;
#133 = PLANE ( 'NONE',  #29 ) ;
#134 = FACE_OUTER_BOUND ( 'NONE', #7, .T. ) ;
#135 = ADVANCED_FACE ( 'NONE', ( #201 ), #32, .T. ) ;
#136 = CARTESIAN_POINT ( 'NONE',  ( 0.000000000000000000, 0.000000000000000000, 5.000000000000000000 ) ) ;
#137 = EDGE_CURVE ( 'NONE', #271, #109, #4, .T. ) ;
#138 = CARTESIAN_POINT ( 'NONE',  ( 8.000000000000000000, 9.797174393178825657E-16, 5.000000000000000000 ) ) ;
#139 = APPROVAL_ROLE ( '' ) ;
#140 = ORIENTED_EDGE ( 'NONE', *, *, #63, .T. ) ;
#141 = PERSON_AND_ORGANIZATION_ROLE ( 'design_owner' ) ;
#142 = CARTESIAN_POINT ( 'NONE',  ( 0.000000000000000000, 0.000000000000000000, 205.0000000000000284 ) ) ;
#143 = APPROVAL_DATE_TIME ( #33, #55 ) ;
#144 = DIRECTION ( 'NONE',  ( 0.000000000000000000, 0.000000000000000000, 1.000000000000000000 ) ) ;
#145 = PRODUCT_DEFINITION_FORMATION_WITH_SPECIFIED_SOURCE ( 'LIBOVOLNÝ', '', #81, .NOT_KNOWN. ) ;
#146 = CARTESIAN_POINT ( 'NONE',  ( 0.000000000000000000, 0.000000000000000000, 0.000000000000000000 ) ) ;
#147 = DIRECTION ( 'NONE',  ( -0.000000000000000000, -0.000000000000000000, -1.000000000000000000 ) ) ;
#148 = EDGE_CURVE ( 'NONE', #109, #88, #132, .T. ) ;
#149 = DIRECTION ( 'NONE',  ( 1.000000000000000000, 0.000000000000000000, 0.000000000000000000 ) ) ;
#150 = APPROVAL_ROLE ( '' ) ;
#151 = AXIS2_PLACEMENT_3D ( 'NONE', #3, #258, #149 ) ;
#152 = ORIENTED_EDGE ( 'NONE', *, *, #177, .T. ) ;
#153 = VERTEX_POINT ( 'NONE', #128 ) ;
#154 = AXIS2_PLACEMENT_3D ( 'NONE', #164, #67, #250 ) ;
#155 = ORIENTED_EDGE ( 'NONE', *, *, #222, .T. ) ;
#156 = ORIENTED_EDGE ( 'NONE', *, *, #289, .T. ) ;
#157 = ADVANCED_FACE ( 'NONE', ( #125 ), #214, .T. ) ;
#158 = ORGANIZATION ( 'NEURÈENÝ', 'NEURÈENÝ', '' ) ;
#159 = DIRECTION ( 'NONE',  ( -0.000000000000000000, -0.000000000000000000, -1.000000000000000000 ) ) ;
#160 = ADVANCED_FACE ( 'NONE', ( #172 ), #48, .F. ) ;
#161 = DIRECTION ( 'NONE',  ( -0.000000000000000000, -0.000000000000000000, -1.000000000000000000 ) ) ;
#162 = CARTESIAN_POINT ( 'NONE',  ( 0.000000000000000000, 0.000000000000000000, 5.200000000000009948 ) ) ;
#163 = CIRCLE ( 'NONE', #100, 8.000000000000000000 ) ;
#164 = CARTESIAN_POINT ( 'NONE',  ( 0.000000000000000000, 0.000000000000000000, 5.000000000000000000 ) ) ;
#165 = APPLICATION_CONTEXT ( 'configuration controlled 3d designs of mechanical parts and assemblies' ) ;
#166 = COORDINATED_UNIVERSAL_TIME_OFFSET ( 1, 0, .AHEAD. ) ;
#167 = CARTESIAN_POINT ( 'NONE',  ( 0.000000000000000000, 0.000000000000000000, 5.000000000000000000 ) ) ;
#168 = AXIS2_PLACEMENT_3D ( 'NONE', #112, #161, #225 ) ;
#169 = CYLINDRICAL_SURFACE ( 'NONE', #189, 8.000000000000000000 ) ;
#170 = EDGE_CURVE ( 'NONE', #271, #111, #12, .T. ) ;
#171 = VECTOR ( 'NONE', #73, 1000.000000000000000 ) ;
#172 = FACE_OUTER_BOUND ( 'NONE', #303, .T. ) ;
#173 = DIRECTION ( 'NONE',  ( -1.000000000000000000, 1.224646799147353454E-16, 0.000000000000000000 ) ) ;
#174 = CIRCLE ( 'NONE', #154, 8.000000000000000000 ) ;
#175 = CARTESIAN_POINT ( 'NONE',  ( 0.000000000000000000, 0.000000000000000000, 205.0000000000000284 ) ) ;
#176 = PERSON_AND_ORGANIZATION ( #241, #158 ) ;
#177 = EDGE_CURVE ( 'NONE', #249, #181, #194, .T. ) ;
#178 = EDGE_LOOP ( 'NONE', ( #182, #113, #268, #131 ) ) ;
#179 = ORIENTED_EDGE ( 'NONE', *, *, #137, .F. ) ;
#180 = ORIENTED_EDGE ( 'NONE', *, *, #267, .F. ) ;
#181 = VERTEX_POINT ( 'NONE', #101 ) ;
#182 = ORIENTED_EDGE ( 'NONE', *, *, #177, .F. ) ;
#183 = CARTESIAN_POINT ( 'NONE',  ( -8.000000000000000000, 0.000000000000000000, 5.000000000000000000 ) ) ;
#184 = APPROVAL_PERSON_ORGANIZATION ( #22, #55, #102 ) ;
#185 = ORIENTED_EDGE ( 'NONE', *, *, #60, .T. ) ;
#186 = CARTESIAN_POINT ( 'NONE',  ( 8.000000000000000000, 9.797174393178825657E-16, 0.000000000000000000 ) ) ;
#187 = DATE_AND_TIME ( #126, #284 ) ;
#188 = CYLINDRICAL_SURFACE ( 'NONE', #213, 8.000000000000000000 ) ;
#189 = AXIS2_PLACEMENT_3D ( 'NONE', #232, #197, #47 ) ;
#190 = CC_DESIGN_DATE_AND_TIME_ASSIGNMENT ( #243, #231, ( #89 ) ) ;
#191 = DIRECTION ( 'NONE',  ( 1.000000000000000000, 0.000000000000000000, 0.000000000000000000 ) ) ;
#192 = DIRECTION ( 'NONE',  ( 0.000000000000000000, 0.000000000000000000, 1.000000000000000000 ) ) ;
#193 = DIRECTION ( 'NONE',  ( 1.000000000000000000, 0.000000000000000000, 0.000000000000000000 ) ) ;
#194 = CIRCLE ( 'NONE', #44, 5.100000000000001421 ) ;
#195 = PLANE ( 'NONE',  #260 ) ;
#196 = APPROVAL_STATUS ( 'not_yet_approved' ) ;
#197 = DIRECTION ( 'NONE',  ( -0.000000000000000000, -0.000000000000000000, -1.000000000000000000 ) ) ;
#198 = CIRCLE ( 'NONE', #90, 0.1999999999999996503 ) ;
#199 = ORIENTED_EDGE ( 'NONE', *, *, #87, .T. ) ;
#200 = ADVANCED_FACE ( 'NONE', ( #305 ), #195, .F. ) ;
#201 = FACE_OUTER_BOUND ( 'NONE', #108, .T. ) ;
#202 = ORIENTED_EDGE ( 'NONE', *, *, #137, .T. ) ;
#203 = APPROVAL ( #264, 'NEURÈENÝ' ) ;
#204 = DIRECTION ( 'NONE',  ( 0.000000000000000000, 0.000000000000000000, 1.000000000000000000 ) ) ;
#205 = CIRCLE ( 'NONE', #294, 5.100000000000001421 ) ;
#206 = CARTESIAN_POINT ( 'NONE',  ( -5.100000000000001421, 0.000000000000000000, 5.200000000000009948 ) ) ;
#207 = PERSON_AND_ORGANIZATION_ROLE ( 'creator' ) ;
#208 = EDGE_LOOP ( 'NONE', ( #292, #62, #202, #11 ) ) ;
#209 = PERSON_AND_ORGANIZATION ( #241, #158 ) ;
#210 = CARTESIAN_POINT ( 'NONE',  ( 5.100000000000001421, 6.245698675651502811E-16, 5.200000000000009948 ) ) ;
#211 = CARTESIAN_POINT ( 'NONE',  ( 0.000000000000000000, 0.000000000000000000, 205.0000000000000284 ) ) ;
#212 = DIRECTION ( 'NONE',  ( 1.000000000000000000, 0.000000000000000000, 0.000000000000000000 ) ) ;
#213 = AXIS2_PLACEMENT_3D ( 'NONE', #300, #159, #66 ) ;
#214 = CYLINDRICAL_SURFACE ( 'NONE', #61, 5.100000000000001421 ) ;
#215 = PERSON_AND_ORGANIZATION_ROLE ( 'classification_officer' ) ;
#216 = AXIS2_PLACEMENT_3D ( 'NONE', #259, #147, #191 ) ;
#217 = APPROVAL_PERSON_ORGANIZATION ( #95, #203, #150 ) ;
#218 = DIRECTION ( 'NONE',  ( 0.000000000000000000, 0.000000000000000000, 1.000000000000000000 ) ) ;
#219 = EDGE_CURVE ( 'NONE', #111, #88, #198, .T. ) ;
#220 = EDGE_LOOP ( 'NONE', ( #93, #8, #298, #68 ) ) ;
#221 = SECURITY_CLASSIFICATION_LEVEL ( 'unclassified' ) ;
#222 = EDGE_CURVE ( 'NONE', #181, #249, #18, .T. ) ;
#223 = VECTOR ( 'NONE', #227, 1000.000000000000000 ) ;
#224 = CARTESIAN_POINT ( 'NONE',  ( 5.300000000000000711, 0.000000000000000000, 5.000000000000005329 ) ) ;
#225 = DIRECTION ( 'NONE',  ( -1.000000000000000000, 0.000000000000000000, 0.000000000000000000 ) ) ;
#226 = DIRECTION ( 'NONE',  ( 0.000000000000000000, 0.000000000000000000, 1.000000000000000000 ) ) ;
#227 = DIRECTION ( 'NONE',  ( -0.000000000000000000, -0.000000000000000000, -1.000000000000000000 ) ) ;
#228 = APPLICATION_PROTOCOL_DEFINITION ( 'international standard', 'config_control_design', 1994, #165 ) ;
#229 = ADVANCED_FACE ( 'NONE', ( #281 ), #169, .T. ) ;
#230 = CARTESIAN_POINT ( 'NONE',  ( 5.100000000000001421, 6.245698675651502811E-16, 205.0000000000000284 ) ) ;
#231 = DATE_TIME_ROLE ( 'creation_date' ) ;
#232 = CARTESIAN_POINT ( 'NONE',  ( 0.000000000000000000, 0.000000000000000000, 5.000000000000000000 ) ) ;
#233 = EDGE_CURVE ( 'NONE', #88, #109, #114, .T. ) ;
#234 = COORDINATED_UNIVERSAL_TIME_OFFSET ( 1, 0, .AHEAD. ) ;
#235 = CARTESIAN_POINT ( 'NONE',  ( 0.000000000000000000, 0.000000000000000000, 0.000000000000000000 ) ) ;
#236 = LOCAL_TIME ( 11, 52, 46.00000000000000000, #119 ) ;
#237 = EDGE_CURVE ( 'NONE', #111, #271, #205, .T. ) ;
#238 = DIRECTION ( 'NONE',  ( -0.000000000000000000, -0.000000000000000000, -1.000000000000000000 ) ) ;
#239 = MANIFOLD_SOLID_BREP ( 'Zaoblit1', #41 ) ;
#240 = DIRECTION ( 'NONE',  ( 1.000000000000000000, 0.000000000000000000, -0.000000000000000000 ) ) ;
#241 = PERSON ( 'NEURÈENÝ', 'NEURÈENÝ', 'NEURÈENÝ', ('NEURÈENÝ'), ('NEURÈENÝ'), ('NEURÈENÝ') ) ;
#242 = CARTESIAN_POINT ( 'NONE',  ( 5.100000000000001421, 6.245698675651502811E-16, 205.0000000000000284 ) ) ;
#243 = DATE_AND_TIME ( #302, #273 ) ;
#244 =( NAMED_UNIT ( * ) PLANE_ANGLE_UNIT ( ) SI_UNIT ( $, .RADIAN. ) );
#245 = PERSON_AND_ORGANIZATION ( #241, #158 ) ;
#246 = UNCERTAINTY_MEASURE_WITH_UNIT (LENGTH_MEASURE( 1.000000000000000082E-05 ), #58, 'distance_accuracy_value', 'NONE');
#247 = ORIENTED_EDGE ( 'NONE', *, *, #289, .F. ) ;
#248 = AXIS2_PLACEMENT_3D ( 'NONE', #162, #204, #272 ) ;
#249 = VERTEX_POINT ( 'NONE', #242 ) ;
#250 = DIRECTION ( 'NONE',  ( 1.000000000000000000, 0.000000000000000000, 0.000000000000000000 ) ) ;
#251 = VECTOR ( 'NONE', #116, 1000.000000000000000 ) ;
#252 = CARTESIAN_POINT ( 'NONE',  ( 8.000000000000000000, 9.797174393178825657E-16, 5.000000000000000000 ) ) ;
#253 = CALENDAR_DATE ( 2022, 7, 7 ) ;
#254 = FACE_OUTER_BOUND ( 'NONE', #178, .T. ) ;
#255 = EDGE_CURVE ( 'NONE', #34, #92, #283, .T. ) ;
#256 = ORIENTED_EDGE ( 'NONE', *, *, #63, .F. ) ;
#257 = CALENDAR_DATE ( 2022, 7, 7 ) ;
#258 = DIRECTION ( 'NONE',  ( 0.000000000000000000, 0.000000000000000000, 1.000000000000000000 ) ) ;
#259 = CARTESIAN_POINT ( 'NONE',  ( 0.000000000000000000, 0.000000000000000000, 5.000000000000000000 ) ) ;
#260 = AXIS2_PLACEMENT_3D ( 'NONE', #80, #218, #240 ) ;
#261 = DIRECTION ( 'NONE',  ( 1.224646799147353207E-16, 1.000000000000000000, -0.000000000000000000 ) ) ;
#262 = DIRECTION ( 'NONE',  ( 0.000000000000000000, 0.000000000000000000, 1.000000000000000000 ) ) ;
#263 = AXIS2_PLACEMENT_3D ( 'NONE', #75, #1, #287 ) ;
#264 = APPROVAL_STATUS ( 'not_yet_approved' ) ;
#265 = APPLICATION_PROTOCOL_DEFINITION ( 'international standard', 'config_control_design', 1994, #306 ) ;
#266 = CIRCLE ( 'NONE', #70, 8.000000000000000000 ) ;
#267 = EDGE_CURVE ( 'NONE', #36, #153, #163, .T. ) ;
#268 = ORIENTED_EDGE ( 'NONE', *, *, #170, .T. ) ;
#269 = CC_DESIGN_DATE_AND_TIME_ASSIGNMENT ( #78, #43, ( #115 ) ) ;
#270 = EDGE_LOOP ( 'NONE', ( #247, #180 ) ) ;
#271 = VERTEX_POINT ( 'NONE', #210 ) ;
#272 = DIRECTION ( 'NONE',  ( 1.000000000000000000, 0.000000000000000000, 0.000000000000000000 ) ) ;
#273 = LOCAL_TIME ( 11, 52, 46.00000000000000000, #290 ) ;
#274 = EDGE_CURVE ( 'NONE', #181, #111, #304, .T. ) ;
#275 = LINE ( 'NONE', #252, #223 ) ;
#276 = DIRECTION ( 'NONE',  ( -0.000000000000000000, -0.000000000000000000, -1.000000000000000000 ) ) ;
#277 = SHAPE_DEFINITION_REPRESENTATION ( #107, #293 ) ;
#278 = CYLINDRICAL_SURFACE ( 'NONE', #168, 5.100000000000001421 ) ;
#279 = CC_DESIGN_APPROVAL ( #203, ( #115 ) ) ;
#280 = DIRECTION ( 'NONE',  ( 1.000000000000000000, 0.000000000000000000, 0.000000000000000000 ) ) ;
#281 = FACE_OUTER_BOUND ( 'NONE', #38, .T. ) ;
#282 = DIRECTION ( 'NONE',  ( -0.000000000000000000, -0.000000000000000000, -1.000000000000000000 ) ) ;
#283 = CIRCLE ( 'NONE', #76, 8.000000000000000000 ) ;
#284 = LOCAL_TIME ( 11, 52, 46.00000000000000000, #31 ) ;
#285 = CARTESIAN_POINT ( 'NONE',  ( -5.300000000000000711, 6.490628035480972910E-16, 5.200000000000009948 ) ) ;
#286 =( NAMED_UNIT ( * ) SI_UNIT ( $, .STERADIAN. ) SOLID_ANGLE_UNIT ( ) );
#287 = DIRECTION ( 'NONE',  ( 0.000000000000000000, 0.000000000000000000, -1.000000000000000000 ) ) ;
#288 = PERSON_AND_ORGANIZATION_ROLE ( 'creator' ) ;
#289 = EDGE_CURVE ( 'NONE', #153, #36, #266, .T. ) ;
#290 = COORDINATED_UNIVERSAL_TIME_OFFSET ( 1, 0, .AHEAD. ) ;
#291 = ORIENTED_EDGE ( 'NONE', *, *, #148, .F. ) ;
#292 = ORIENTED_EDGE ( 'NONE', *, *, #219, .F. ) ;
#293 = ADVANCED_BREP_SHAPE_REPRESENTATION ( 'd01b', ( #239, #121 ), #85 ) ;
#294 = AXIS2_PLACEMENT_3D ( 'NONE', #307, #23, #24 ) ;
#295 = CC_DESIGN_SECURITY_CLASSIFICATION ( #115, ( #145 ) ) ;
#296 = ORIENTED_EDGE ( 'NONE', *, *, #60, .F. ) ;
#297 = VECTOR ( 'NONE', #276, 1000.000000000000000 ) ;
#298 = ORIENTED_EDGE ( 'NONE', *, *, #274, .T. ) ;
#299 = FACE_OUTER_BOUND ( 'NONE', #35, .T. ) ;
#300 = CARTESIAN_POINT ( 'NONE',  ( 0.000000000000000000, 0.000000000000000000, 5.000000000000000000 ) ) ;
#301 = AXIS2_PLACEMENT_3D ( 'NONE', #167, #282, #193 ) ;
#302 = CALENDAR_DATE ( 2022, 7, 7 ) ;
#303 = EDGE_LOOP ( 'NONE', ( #64, #21, #291, #179 ) ) ;
#304 = LINE ( 'NONE', #97, #171 ) ;
#305 = FACE_OUTER_BOUND ( 'NONE', #270, .T. ) ;
#306 = APPLICATION_CONTEXT ( 'configuration controlled 3d designs of mechanical parts and assemblies' ) ;
#307 = CARTESIAN_POINT ( 'NONE',  ( 0.000000000000000000, 0.000000000000000000, 5.200000000000009948 ) ) ;
ENDSEC;
END-ISO-10303-21;
