ISO-10303-21;
HEADER;
FILE_DESCRIPTION (( 'STEP AP203' ),
    '1' );
FILE_NAME ('623a.STEP',
    '2022-07-07T09:57:06',
    ( '' ),
    ( '' ),
    'SwSTEP 2.0',
    'SolidWorks 2019',
    '' );
FILE_SCHEMA (( 'CONFIG_CONTROL_DESIGN' ));
ENDSEC;

DATA;
#1 = APPROVAL_ROLE ( '' ) ;
#2 = LOCAL_TIME ( 11, 57, 6.000000000000000000, #63 ) ;
#3 = PERSON_AND_ORGANIZATION ( #307, #275 ) ;
#4 = VERTEX_POINT ( 'NONE', #183 ) ;
#5 = CC_DESIGN_PERSON_AND_ORGANIZATION_ASSIGNMENT ( #148, #234, ( #252 ) ) ;
#6 = CARTESIAN_POINT ( 'NONE',  ( -4.700000000000000178, 5.755839955992559655E-16, 5.200000000000009948 ) ) ;
#7 = DIRECTION ( 'NONE',  ( -1.000000000000000000, 0.000000000000000000, 0.000000000000000000 ) ) ;
#8 = EDGE_LOOP ( 'NONE', ( #224, #218, #268, #126 ) ) ;
#9 = AXIS2_PLACEMENT_3D ( 'NONE', #102, #36, #156 ) ;
#10 = CYLINDRICAL_SURFACE ( 'NONE', #113, 4.500000000000000888 ) ;
#11 = DIRECTION ( 'NONE',  ( 0.000000000000000000, 0.000000000000000000, -1.000000000000000000 ) ) ;
#12 = EDGE_CURVE ( 'NONE', #4, #119, #23, .T. ) ;
#13 = FACE_BOUND ( 'NONE', #14, .T. ) ;
#14 = EDGE_LOOP ( 'NONE', ( #294, #174 ) ) ;
#15 = DIRECTION ( 'NONE',  ( -1.000000000000000000, 0.000000000000000000, 0.000000000000000000 ) ) ;
#16 = DIRECTION ( 'NONE',  ( 1.000000000000000000, 0.000000000000000000, 0.000000000000000000 ) ) ;
#17 = PLANE ( 'NONE',  #262 ) ;
#18 = APPLICATION_PROTOCOL_DEFINITION ( 'international standard', 'config_control_design', 1994, #117 ) ;
#19 = PRODUCT ( '623a', '623a', '', ( #166 ) ) ;
#20 = PERSON_AND_ORGANIZATION_ROLE ( 'design_owner' ) ;
#21 = AXIS2_PLACEMENT_3D ( 'NONE', #55, #179, #161 ) ;
#22 = CARTESIAN_POINT ( 'NONE',  ( 0.000000000000000000, 0.000000000000000000, 5.200000000000009948 ) ) ;
#23 = CIRCLE ( 'NONE', #237, 7.000000000000000000 ) ;
#24 = CIRCLE ( 'NONE', #203, 7.000000000000000000 ) ;
#25 = DIRECTION ( 'NONE',  ( 1.000000000000000000, 0.000000000000000000, 0.000000000000000000 ) ) ;
#26 = CC_DESIGN_APPROVAL ( #280, ( #89 ) ) ;
#27 = EDGE_CURVE ( 'NONE', #267, #221, #282, .T. ) ;
#28 = DIRECTION ( 'NONE',  ( 0.000000000000000000, 0.000000000000000000, 1.000000000000000000 ) ) ;
#29 = CARTESIAN_POINT ( 'NONE',  ( 0.000000000000000000, 0.000000000000000000, 5.000000000000000000 ) ) ;
#30 = ORIENTED_EDGE ( 'NONE', *, *, #236, .T. ) ;
#31 = CARTESIAN_POINT ( 'NONE',  ( 0.000000000000000000, 0.000000000000000000, 5.200000000000009948 ) ) ;
#32 = VECTOR ( 'NONE', #79, 1000.000000000000000 ) ;
#33 = EDGE_LOOP ( 'NONE', ( #276, #30 ) ) ;
#34 = CARTESIAN_POINT ( 'NONE',  ( -7.000000000000000000, 0.000000000000000000, 0.000000000000000000 ) ) ;
#35 = ORIENTED_EDGE ( 'NONE', *, *, #66, .F. ) ;
#36 = DIRECTION ( 'NONE',  ( 0.000000000000000000, 0.000000000000000000, 1.000000000000000000 ) ) ;
#37 = CARTESIAN_POINT ( 'NONE',  ( 0.000000000000000000, 0.000000000000000000, 5.000000000000000000 ) ) ;
#38 = CARTESIAN_POINT ( 'NONE',  ( 7.000000000000000000, 8.572527594031473190E-16, 5.000000000000000000 ) ) ;
#39 = DATE_TIME_ROLE ( 'creation_date' ) ;
#40 = PERSON_AND_ORGANIZATION ( #307, #275 ) ;
#41 = COORDINATED_UNIVERSAL_TIME_OFFSET ( 1, 0, .AHEAD. ) ;
#42 =( LENGTH_UNIT ( ) NAMED_UNIT ( * ) SI_UNIT ( .MILLI., .METRE. ) );
#43 = VECTOR ( 'NONE', #227, 1000.000000000000000 ) ;
#44 = DIRECTION ( 'NONE',  ( 1.000000000000000000, 0.000000000000000000, 0.000000000000000000 ) ) ;
#45 = EDGE_CURVE ( 'NONE', #130, #105, #74, .T. ) ;
#46 = AXIS2_PLACEMENT_3D ( 'NONE', #75, #289, #11 ) ;
#47 = PERSON_AND_ORGANIZATION ( #307, #275 ) ;
#48 = CALENDAR_DATE ( 2022, 7, 7 ) ;
#49 = EDGE_CURVE ( 'NONE', #248, #157, #288, .T. ) ;
#50 = ORIENTED_EDGE ( 'NONE', *, *, #27, .F. ) ;
#51 = ORIENTED_EDGE ( 'NONE', *, *, #178, .T. ) ;
#52 = CC_DESIGN_DATE_AND_TIME_ASSIGNMENT ( #95, #124, ( #141 ) ) ;
#53 = CARTESIAN_POINT ( 'NONE',  ( 7.000000000000000000, 8.572527594031473190E-16, 5.000000000000000000 ) ) ;
#54 = ORIENTED_EDGE ( 'NONE', *, *, #236, .F. ) ;
#55 = CARTESIAN_POINT ( 'NONE',  ( 0.000000000000000000, 0.000000000000000000, 5.000000000000000000 ) ) ;
#56 = ORIENTED_EDGE ( 'NONE', *, *, #72, .T. ) ;
#57 = CIRCLE ( 'NONE', #133, 4.500000000000000888 ) ;
#58 = DIRECTION ( 'NONE',  ( -0.000000000000000000, -0.000000000000000000, -1.000000000000000000 ) ) ;
#59 = CARTESIAN_POINT ( 'NONE',  ( 0.000000000000000000, 0.000000000000000000, 5.000000000000000000 ) ) ;
#60 = PRODUCT_DEFINITION_SHAPE ( 'NONE', 'NONE',  #252 ) ;
#61 = FACE_OUTER_BOUND ( 'NONE', #249, .T. ) ;
#62 = EDGE_CURVE ( 'NONE', #267, #248, #254, .T. ) ;
#63 = COORDINATED_UNIVERSAL_TIME_OFFSET ( 1, 0, .AHEAD. ) ;
#64 = LOCAL_TIME ( 11, 57, 6.000000000000000000, #149 ) ;
#65 = PERSON_AND_ORGANIZATION ( #307, #275 ) ;
#66 = EDGE_CURVE ( 'NONE', #221, #157, #261, .T. ) ;
#67 = CARTESIAN_POINT ( 'NONE',  ( 0.000000000000000000, 0.000000000000000000, 5.000000000000000000 ) ) ;
#68 = APPROVAL_ROLE ( '' ) ;
#69 = AXIS2_PLACEMENT_3D ( 'NONE', #22, #142, #44 ) ;
#70 = TOROIDAL_SURFACE ( 'NONE', #134, 4.700000000000000178, 0.2000000000000000111 ) ;
#71 = APPROVAL_DATE_TIME ( #121, #206 ) ;
#72 = EDGE_CURVE ( 'NONE', #4, #130, #162, .T. ) ;
#73 = DIRECTION ( 'NONE',  ( 1.000000000000000000, 0.000000000000000000, 0.000000000000000000 ) ) ;
#74 = CIRCLE ( 'NONE', #235, 7.000000000000000000 ) ;
#75 = CARTESIAN_POINT ( 'NONE',  ( 4.700000000000000178, 0.000000000000000000, 5.200000000000009948 ) ) ;
#76 = AXIS2_PLACEMENT_3D ( 'NONE', #145, #86, #90 ) ;
#77 = LINE ( 'NONE', #274, #298 ) ;
#78 = ORIENTED_EDGE ( 'NONE', *, *, #62, .T. ) ;
#79 = DIRECTION ( 'NONE',  ( -0.000000000000000000, -0.000000000000000000, -1.000000000000000000 ) ) ;
#80 = ORIENTED_EDGE ( 'NONE', *, *, #242, .F. ) ;
#81 = DIRECTION ( 'NONE',  ( -1.000000000000000000, 0.000000000000000000, 0.000000000000000000 ) ) ;
#82 = EDGE_LOOP ( 'NONE', ( #54, #153, #78, #177 ) ) ;
#83 = LOCAL_TIME ( 11, 57, 6.000000000000000000, #41 ) ;
#84 = CARTESIAN_POINT ( 'NONE',  ( 7.000000000000000000, 8.572527594031473190E-16, 0.000000000000000000 ) ) ;
#85 = FACE_OUTER_BOUND ( 'NONE', #82, .T. ) ;
#86 = DIRECTION ( 'NONE',  ( 0.000000000000000000, 0.000000000000000000, 1.000000000000000000 ) ) ;
#87 = CC_DESIGN_PERSON_AND_ORGANIZATION_ASSIGNMENT ( #111, #20, ( #19 ) ) ;
#88 = CARTESIAN_POINT ( 'NONE',  ( 0.000000000000000000, 0.000000000000000000, 0.000000000000000000 ) ) ;
#89 = PRODUCT_DEFINITION_FORMATION_WITH_SPECIFIED_SOURCE ( 'LIBOVOLNÝ', '', #19, .NOT_KNOWN. ) ;
#90 = DIRECTION ( 'NONE',  ( 1.000000000000000000, 0.000000000000000000, 0.000000000000000000 ) ) ;
#91 = ORIENTED_EDGE ( 'NONE', *, *, #72, .F. ) ;
#92 = CARTESIAN_POINT ( 'NONE',  ( 0.000000000000000000, 0.000000000000000000, 5.200000000000009948 ) ) ;
#93 = ADVANCED_FACE ( 'NONE', ( #85 ), #10, .T. ) ;
#94 = ORIENTED_EDGE ( 'NONE', *, *, #178, .F. ) ;
#95 = DATE_AND_TIME ( #239, #240 ) ;
#96 = TOROIDAL_SURFACE ( 'NONE', #69, 4.700000000000000178, 0.2000000000000000111 ) ;
#97 = DIRECTION ( 'NONE',  ( -1.000000000000000000, 1.224646799147353454E-16, 0.000000000000000000 ) ) ;
#98 = EDGE_CURVE ( 'NONE', #244, #241, #247, .T. ) ;
#99 = ORIENTED_EDGE ( 'NONE', *, *, #98, .F. ) ;
#100 = PLANE ( 'NONE',  #272 ) ;
#101 = EDGE_LOOP ( 'NONE', ( #136, #175, #35, #50 ) ) ;
#102 = CARTESIAN_POINT ( 'NONE',  ( 0.000000000000000000, 0.000000000000000000, 5.000000000000000000 ) ) ;
#103 = CARTESIAN_POINT ( 'NONE',  ( 0.000000000000000000, 0.000000000000000000, 0.000000000000000000 ) ) ;
#104 = DIRECTION ( 'NONE',  ( 1.000000000000000000, 0.000000000000000000, -0.000000000000000000 ) ) ;
#105 = VERTEX_POINT ( 'NONE', #84 ) ;
#106 = ADVANCED_FACE ( 'NONE', ( #61 ), #205, .T. ) ;
#107 = DIRECTION ( 'NONE',  ( -0.000000000000000000, -0.000000000000000000, -1.000000000000000000 ) ) ;
#108 = AXIS2_PLACEMENT_3D ( 'NONE', #243, #128, #219 ) ;
#109 = CC_DESIGN_SECURITY_CLASSIFICATION ( #141, ( #89 ) ) ;
#110 = CARTESIAN_POINT ( 'NONE',  ( 0.000000000000000000, 0.000000000000000000, 165.0000000000000000 ) ) ;
#111 = PERSON_AND_ORGANIZATION ( #307, #275 ) ;
#112 = ADVANCED_BREP_SHAPE_REPRESENTATION ( '623a', ( #230, #76 ), #170 ) ;
#113 = AXIS2_PLACEMENT_3D ( 'NONE', #138, #250, #7 ) ;
#114 = CARTESIAN_POINT ( 'NONE',  ( -4.500000000000000888, 0.000000000000000000, 5.200000000000009948 ) ) ;
#115 = CIRCLE ( 'NONE', #299, 7.000000000000000000 ) ;
#116 = DIRECTION ( 'NONE',  ( 0.000000000000000000, 0.000000000000000000, 1.000000000000000000 ) ) ;
#117 = APPLICATION_CONTEXT ( 'configuration controlled 3d designs of mechanical parts and assemblies' ) ;
#118 = CARTESIAN_POINT ( 'NONE',  ( 4.500000000000000888, 5.510910596163089556E-16, 165.0000000000000000 ) ) ;
#119 = VERTEX_POINT ( 'NONE', #53 ) ;
#120 = ADVANCED_FACE ( 'NONE', ( #222 ), #100, .F. ) ;
#121 = DATE_AND_TIME ( #48, #64 ) ;
#122 = CC_DESIGN_APPROVAL ( #206, ( #141 ) ) ;
#123 = DIRECTION ( 'NONE',  ( 0.000000000000000000, 0.000000000000000000, 1.000000000000000000 ) ) ;
#124 = DATE_TIME_ROLE ( 'classification_date' ) ;
#125 = EDGE_CURVE ( 'NONE', #241, #267, #293, .T. ) ;
#126 = ORIENTED_EDGE ( 'NONE', *, *, #143, .F. ) ;
#127 = APPLICATION_CONTEXT ( 'configuration controlled 3d designs of mechanical parts and assemblies' ) ;
#128 = DIRECTION ( 'NONE',  ( 0.000000000000000000, 0.000000000000000000, 1.000000000000000000 ) ) ;
#129 = DESIGN_CONTEXT ( 'detailed design', #127, 'design' ) ;
#130 = VERTEX_POINT ( 'NONE', #34 ) ;
#131 = AXIS2_PLACEMENT_3D ( 'NONE', #37, #228, #16 ) ;
#132 = CYLINDRICAL_SURFACE ( 'NONE', #223, 7.000000000000000000 ) ;
#133 = AXIS2_PLACEMENT_3D ( 'NONE', #31, #253, #291 ) ;
#134 = AXIS2_PLACEMENT_3D ( 'NONE', #92, #165, #259 ) ;
#135 = FACE_OUTER_BOUND ( 'NONE', #212, .T. ) ;
#136 = ORIENTED_EDGE ( 'NONE', *, *, #211, .F. ) ;
#137 = PRODUCT_RELATED_PRODUCT_CATEGORY ( 'detail', '', ( #19 ) ) ;
#138 = CARTESIAN_POINT ( 'NONE',  ( 0.000000000000000000, 0.000000000000000000, 165.0000000000000000 ) ) ;
#139 = DIRECTION ( 'NONE',  ( 1.000000000000000000, 0.000000000000000000, 0.000000000000000000 ) ) ;
#140 = CARTESIAN_POINT ( 'NONE',  ( 0.000000000000000000, 0.000000000000000000, 0.000000000000000000 ) ) ;
#141 = SECURITY_CLASSIFICATION ( '', '', #285 ) ;
#142 = DIRECTION ( 'NONE',  ( 0.000000000000000000, 0.000000000000000000, 1.000000000000000000 ) ) ;
#143 = EDGE_CURVE ( 'NONE', #157, #221, #215, .T. ) ;
#144 = DATE_AND_TIME ( #164, #2 ) ;
#145 = CARTESIAN_POINT ( 'NONE',  ( 0.000000000000000000, 0.000000000000000000, 0.000000000000000000 ) ) ;
#146 = CARTESIAN_POINT ( 'NONE',  ( 4.500000000000000888, 5.510910596163089556E-16, 5.200000000000009948 ) ) ;
#147 = CC_DESIGN_APPROVAL ( #264, ( #252 ) ) ;
#148 = PERSON_AND_ORGANIZATION ( #307, #275 ) ;
#149 = COORDINATED_UNIVERSAL_TIME_OFFSET ( 1, 0, .AHEAD. ) ;
#150 = ADVANCED_FACE ( 'NONE', ( #13, #158 ), #176, .T. ) ;
#151 = PERSON_AND_ORGANIZATION_ROLE ( 'design_supplier' ) ;
#152 = SHAPE_DEFINITION_REPRESENTATION ( #60, #112 ) ;
#153 = ORIENTED_EDGE ( 'NONE', *, *, #125, .T. ) ;
#154 = DIRECTION ( 'NONE',  ( 1.000000000000000000, 0.000000000000000000, -0.000000000000000000 ) ) ;
#155 = ORIENTED_EDGE ( 'NONE', *, *, #220, .T. ) ;
#156 = DIRECTION ( 'NONE',  ( 1.000000000000000000, 0.000000000000000000, -0.000000000000000000 ) ) ;
#157 = VERTEX_POINT ( 'NONE', #197 ) ;
#158 = FACE_OUTER_BOUND ( 'NONE', #273, .T. ) ;
#159 = AXIS2_PLACEMENT_3D ( 'NONE', #225, #107, #229 ) ;
#160 = ORIENTED_EDGE ( 'NONE', *, *, #45, .T. ) ;
#161 = DIRECTION ( 'NONE',  ( 1.000000000000000000, 0.000000000000000000, 0.000000000000000000 ) ) ;
#162 = LINE ( 'NONE', #251, #32 ) ;
#163 = DIRECTION ( 'NONE',  ( 1.000000000000000000, 0.000000000000000000, 0.000000000000000000 ) ) ;
#164 = CALENDAR_DATE ( 2022, 7, 7 ) ;
#165 = DIRECTION ( 'NONE',  ( 0.000000000000000000, 0.000000000000000000, 1.000000000000000000 ) ) ;
#166 = MECHANICAL_CONTEXT ( 'NONE', #117, 'mechanical' ) ;
#167 = ADVANCED_FACE ( 'NONE', ( #135 ), #295, .T. ) ;
#168 = CIRCLE ( 'NONE', #108, 4.500000000000000888 ) ;
#169 = FACE_OUTER_BOUND ( 'NONE', #8, .T. ) ;
#170 =( GEOMETRIC_REPRESENTATION_CONTEXT ( 3 ) GLOBAL_UNCERTAINTY_ASSIGNED_CONTEXT ( ( #217 ) ) GLOBAL_UNIT_ASSIGNED_CONTEXT ( ( #42, #210, #302 ) ) REPRESENTATION_CONTEXT ( 'NONE', 'WORKASPACE' ) );
#171 = CALENDAR_DATE ( 2022, 7, 7 ) ;
#172 = CC_DESIGN_PERSON_AND_ORGANIZATION_ASSIGNMENT ( #3, #151, ( #89 ) ) ;
#173 = PERSON_AND_ORGANIZATION ( #307, #275 ) ;
#174 = ORIENTED_EDGE ( 'NONE', *, *, #143, .T. ) ;
#175 = ORIENTED_EDGE ( 'NONE', *, *, #49, .T. ) ;
#176 = PLANE ( 'NONE',  #9 ) ;
#177 = ORIENTED_EDGE ( 'NONE', *, *, #220, .F. ) ;
#178 = EDGE_CURVE ( 'NONE', #119, #105, #184, .T. ) ;
#179 = DIRECTION ( 'NONE',  ( -0.000000000000000000, -0.000000000000000000, -1.000000000000000000 ) ) ;
#180 = ORIENTED_EDGE ( 'NONE', *, *, #211, .T. ) ;
#181 = DIRECTION ( 'NONE',  ( -0.000000000000000000, -0.000000000000000000, -1.000000000000000000 ) ) ;
#182 = APPROVAL_PERSON_ORGANIZATION ( #65, #280, #255 ) ;
#183 = CARTESIAN_POINT ( 'NONE',  ( -7.000000000000000000, 0.000000000000000000, 5.000000000000000000 ) ) ;
#184 = LINE ( 'NONE', #38, #187 ) ;
#185 = DIRECTION ( 'NONE',  ( 0.000000000000000000, 0.000000000000000000, 1.000000000000000000 ) ) ;
#186 = CARTESIAN_POINT ( 'NONE',  ( -4.500000000000000888, 0.000000000000000000, 165.0000000000000000 ) ) ;
#187 = VECTOR ( 'NONE', #245, 1000.000000000000000 ) ;
#188 = DIRECTION ( 'NONE',  ( 1.000000000000000000, 0.000000000000000000, 0.000000000000000000 ) ) ;
#189 = ADVANCED_FACE ( 'NONE', ( #202 ), #132, .T. ) ;
#190 = AXIS2_PLACEMENT_3D ( 'NONE', #6, #216, #97 ) ;
#191 = DATE_AND_TIME ( #306, #83 ) ;
#192 = DATE_AND_TIME ( #171, #258 ) ;
#193 = AXIS2_PLACEMENT_3D ( 'NONE', #29, #181, #81 ) ;
#194 = APPROVAL_PERSON_ORGANIZATION ( #265, #206, #1 ) ;
#195 = CARTESIAN_POINT ( 'NONE',  ( 0.000000000000000000, 0.000000000000000000, 5.200000000000009948 ) ) ;
#196 = ORIENTED_EDGE ( 'NONE', *, *, #125, .F. ) ;
#197 = CARTESIAN_POINT ( 'NONE',  ( -4.700000000000000178, 5.755839955992559655E-16, 5.000000000000005329 ) ) ;
#198 = ORIENTED_EDGE ( 'NONE', *, *, #12, .F. ) ;
#199 = FACE_OUTER_BOUND ( 'NONE', #33, .T. ) ;
#200 = EDGE_LOOP ( 'NONE', ( #80, #51, #305, #91 ) ) ;
#201 = CARTESIAN_POINT ( 'NONE',  ( 4.500000000000000888, 5.510910596163089556E-16, 165.0000000000000000 ) ) ;
#202 = FACE_OUTER_BOUND ( 'NONE', #200, .T. ) ;
#203 = AXIS2_PLACEMENT_3D ( 'NONE', #67, #116, #303 ) ;
#204 = APPROVAL_PERSON_ORGANIZATION ( #40, #264, #68 ) ;
#205 = CYLINDRICAL_SURFACE ( 'NONE', #159, 4.500000000000000888 ) ;
#206 = APPROVAL ( #213, 'NEURÈENÝ' ) ;
#207 = APPROVAL_STATUS ( 'not_yet_approved' ) ;
#208 = DIRECTION ( 'NONE',  ( 0.000000000000000000, 0.000000000000000000, 1.000000000000000000 ) ) ;
#209 = CC_DESIGN_PERSON_AND_ORGANIZATION_ASSIGNMENT ( #47, #263, ( #141 ) ) ;
#210 =( NAMED_UNIT ( * ) PLANE_ANGLE_UNIT ( ) SI_UNIT ( $, .RADIAN. ) );
#211 = EDGE_CURVE ( 'NONE', #248, #267, #57, .T. ) ;
#212 = EDGE_LOOP ( 'NONE', ( #94, #198, #56, #160 ) ) ;
#213 = APPROVAL_STATUS ( 'not_yet_approved' ) ;
#214 = PERSON_AND_ORGANIZATION_ROLE ( 'creator' ) ;
#215 = CIRCLE ( 'NONE', #21, 4.700000000000000178 ) ;
#216 = DIRECTION ( 'NONE',  ( 1.224646799147353207E-16, 1.000000000000000000, -0.000000000000000000 ) ) ;
#217 = UNCERTAINTY_MEASURE_WITH_UNIT (LENGTH_MEASURE( 1.000000000000000082E-05 ), #42, 'distance_accuracy_value', 'NONE');
#218 = ORIENTED_EDGE ( 'NONE', *, *, #62, .F. ) ;
#219 = DIRECTION ( 'NONE',  ( 1.000000000000000000, 0.000000000000000000, 0.000000000000000000 ) ) ;
#220 = EDGE_CURVE ( 'NONE', #244, #248, #77, .T. ) ;
#221 = VERTEX_POINT ( 'NONE', #300 ) ;
#222 = FACE_OUTER_BOUND ( 'NONE', #270, .T. ) ;
#223 = AXIS2_PLACEMENT_3D ( 'NONE', #297, #277, #15 ) ;
#224 = ORIENTED_EDGE ( 'NONE', *, *, #49, .F. ) ;
#225 = CARTESIAN_POINT ( 'NONE',  ( 0.000000000000000000, 0.000000000000000000, 165.0000000000000000 ) ) ;
#226 = ORIENTED_EDGE ( 'NONE', *, *, #45, .F. ) ;
#227 = DIRECTION ( 'NONE',  ( -0.000000000000000000, -0.000000000000000000, -1.000000000000000000 ) ) ;
#228 = DIRECTION ( 'NONE',  ( -0.000000000000000000, -0.000000000000000000, -1.000000000000000000 ) ) ;
#229 = DIRECTION ( 'NONE',  ( -1.000000000000000000, 0.000000000000000000, 0.000000000000000000 ) ) ;
#230 = MANIFOLD_SOLID_BREP ( 'Zaoblit1', #256 ) ;
#231 = COORDINATED_UNIVERSAL_TIME_OFFSET ( 1, 0, .AHEAD. ) ;
#232 = ADVANCED_FACE ( 'NONE', ( #199 ), #17, .T. ) ;
#233 = APPROVAL_DATE_TIME ( #191, #264 ) ;
#234 = PERSON_AND_ORGANIZATION_ROLE ( 'creator' ) ;
#235 = AXIS2_PLACEMENT_3D ( 'NONE', #103, #123, #73 ) ;
#236 = EDGE_CURVE ( 'NONE', #241, #244, #168, .T. ) ;
#237 = AXIS2_PLACEMENT_3D ( 'NONE', #59, #290, #25 ) ;
#238 = ORIENTED_EDGE ( 'NONE', *, *, #12, .T. ) ;
#239 = CALENDAR_DATE ( 2022, 7, 7 ) ;
#240 = LOCAL_TIME ( 11, 57, 6.000000000000000000, #266 ) ;
#241 = VERTEX_POINT ( 'NONE', #118 ) ;
#242 = EDGE_CURVE ( 'NONE', #119, #4, #24, .T. ) ;
#243 = CARTESIAN_POINT ( 'NONE',  ( 0.000000000000000000, 0.000000000000000000, 165.0000000000000000 ) ) ;
#244 = VERTEX_POINT ( 'NONE', #186 ) ;
#245 = DIRECTION ( 'NONE',  ( -0.000000000000000000, -0.000000000000000000, -1.000000000000000000 ) ) ;
#246 = AXIS2_PLACEMENT_3D ( 'NONE', #269, #185, #163 ) ;
#247 = CIRCLE ( 'NONE', #246, 4.500000000000000888 ) ;
#248 = VERTEX_POINT ( 'NONE', #114 ) ;
#249 = EDGE_LOOP ( 'NONE', ( #196, #99, #155, #180 ) ) ;
#250 = DIRECTION ( 'NONE',  ( -0.000000000000000000, -0.000000000000000000, -1.000000000000000000 ) ) ;
#251 = CARTESIAN_POINT ( 'NONE',  ( -7.000000000000000000, 0.000000000000000000, 5.000000000000000000 ) ) ;
#252 = PRODUCT_DEFINITION ( 'NEZNÁMÝ', '', #89, #129 ) ;
#253 = DIRECTION ( 'NONE',  ( 0.000000000000000000, 0.000000000000000000, 1.000000000000000000 ) ) ;
#254 = CIRCLE ( 'NONE', #279, 4.500000000000000888 ) ;
#255 = APPROVAL_ROLE ( '' ) ;
#256 = CLOSED_SHELL ( 'NONE', ( #260, #93, #189, #167, #150, #120, #106, #232, #286 ) ) ;
#257 = APPLICATION_PROTOCOL_DEFINITION ( 'international standard', 'config_control_design', 1994, #127 ) ;
#258 = LOCAL_TIME ( 11, 57, 6.000000000000000000, #231 ) ;
#259 = DIRECTION ( 'NONE',  ( 1.000000000000000000, 0.000000000000000000, 0.000000000000000000 ) ) ;
#260 = ADVANCED_FACE ( 'NONE', ( #281 ), #70, .F. ) ;
#261 = CIRCLE ( 'NONE', #131, 4.700000000000000178 ) ;
#262 = AXIS2_PLACEMENT_3D ( 'NONE', #110, #278, #154 ) ;
#263 = PERSON_AND_ORGANIZATION_ROLE ( 'classification_officer' ) ;
#264 = APPROVAL ( #283, 'NEURÈENÝ' ) ;
#265 = PERSON_AND_ORGANIZATION ( #307, #275 ) ;
#266 = COORDINATED_UNIVERSAL_TIME_OFFSET ( 1, 0, .AHEAD. ) ;
#267 = VERTEX_POINT ( 'NONE', #146 ) ;
#268 = ORIENTED_EDGE ( 'NONE', *, *, #27, .T. ) ;
#269 = CARTESIAN_POINT ( 'NONE',  ( 0.000000000000000000, 0.000000000000000000, 165.0000000000000000 ) ) ;
#270 = EDGE_LOOP ( 'NONE', ( #226, #296 ) ) ;
#271 = DIRECTION ( 'NONE',  ( 0.000000000000000000, 0.000000000000000000, 1.000000000000000000 ) ) ;
#272 = AXIS2_PLACEMENT_3D ( 'NONE', #140, #271, #104 ) ;
#273 = EDGE_LOOP ( 'NONE', ( #238, #292 ) ) ;
#274 = CARTESIAN_POINT ( 'NONE',  ( -4.500000000000000888, 0.000000000000000000, 165.0000000000000000 ) ) ;
#275 = ORGANIZATION ( 'NEURÈENÝ', 'NEURÈENÝ', '' ) ;
#276 = ORIENTED_EDGE ( 'NONE', *, *, #98, .T. ) ;
#277 = DIRECTION ( 'NONE',  ( -0.000000000000000000, -0.000000000000000000, -1.000000000000000000 ) ) ;
#278 = DIRECTION ( 'NONE',  ( 0.000000000000000000, 0.000000000000000000, 1.000000000000000000 ) ) ;
#279 = AXIS2_PLACEMENT_3D ( 'NONE', #195, #28, #139 ) ;
#280 = APPROVAL ( #207, 'NEURÈENÝ' ) ;
#281 = FACE_OUTER_BOUND ( 'NONE', #101, .T. ) ;
#282 = CIRCLE ( 'NONE', #46, 0.1999999999999996503 ) ;
#283 = APPROVAL_STATUS ( 'not_yet_approved' ) ;
#284 = CC_DESIGN_PERSON_AND_ORGANIZATION_ASSIGNMENT ( #173, #214, ( #89 ) ) ;
#285 = SECURITY_CLASSIFICATION_LEVEL ( 'unclassified' ) ;
#286 = ADVANCED_FACE ( 'NONE', ( #169 ), #96, .F. ) ;
#287 = APPROVAL_DATE_TIME ( #192, #280 ) ;
#288 = CIRCLE ( 'NONE', #190, 0.1999999999999996503 ) ;
#289 = DIRECTION ( 'NONE',  ( 0.000000000000000000, -1.000000000000000000, 0.000000000000000000 ) ) ;
#290 = DIRECTION ( 'NONE',  ( 0.000000000000000000, 0.000000000000000000, 1.000000000000000000 ) ) ;
#291 = DIRECTION ( 'NONE',  ( 1.000000000000000000, 0.000000000000000000, 0.000000000000000000 ) ) ;
#292 = ORIENTED_EDGE ( 'NONE', *, *, #242, .T. ) ;
#293 = LINE ( 'NONE', #201, #43 ) ;
#294 = ORIENTED_EDGE ( 'NONE', *, *, #66, .T. ) ;
#295 = CYLINDRICAL_SURFACE ( 'NONE', #193, 7.000000000000000000 ) ;
#296 = ORIENTED_EDGE ( 'NONE', *, *, #304, .F. ) ;
#297 = CARTESIAN_POINT ( 'NONE',  ( 0.000000000000000000, 0.000000000000000000, 5.000000000000000000 ) ) ;
#298 = VECTOR ( 'NONE', #58, 1000.000000000000000 ) ;
#299 = AXIS2_PLACEMENT_3D ( 'NONE', #88, #208, #188 ) ;
#300 = CARTESIAN_POINT ( 'NONE',  ( 4.700000000000000178, 0.000000000000000000, 5.000000000000005329 ) ) ;
#301 = CC_DESIGN_DATE_AND_TIME_ASSIGNMENT ( #144, #39, ( #252 ) ) ;
#302 =( NAMED_UNIT ( * ) SI_UNIT ( $, .STERADIAN. ) SOLID_ANGLE_UNIT ( ) );
#303 = DIRECTION ( 'NONE',  ( 1.000000000000000000, 0.000000000000000000, 0.000000000000000000 ) ) ;
#304 = EDGE_CURVE ( 'NONE', #105, #130, #115, .T. ) ;
#305 = ORIENTED_EDGE ( 'NONE', *, *, #304, .T. ) ;
#306 = CALENDAR_DATE ( 2022, 7, 7 ) ;
#307 = PERSON ( 'NEURÈENÝ', 'NEURÈENÝ', 'NEURÈENÝ', ('NEURÈENÝ'), ('NEURÈENÝ'), ('NEURÈENÝ') ) ;
ENDSEC;
END-ISO-10303-21;
