ISO-10303-21;
HEADER;
FILE_DESCRIPTION (( 'STEP AP203' ),
    '1' );
FILE_NAME ('950c.STEP',
    '2023-02-12T11:05:20',
    ( '' ),
    ( '' ),
    'SwSTEP 2.0',
    'SolidWorks 2019',
    '' );
FILE_SCHEMA (( 'CONFIG_CONTROL_DESIGN' ));
ENDSEC;

DATA;
#1 = FACE_OUTER_BOUND ( 'NONE', #95, .T. ) ;
#2 = CYLINDRICAL_SURFACE ( 'NONE', #203, 9.000000000000000000 ) ;
#3 = PERSON_AND_ORGANIZATION ( #169, #6 ) ;
#4 = DIRECTION ( 'NONE',  ( 0.000000000000000000, 0.000000000000000000, 1.000000000000000000 ) ) ;
#5 = VECTOR ( 'NONE', #24, 1000.000000000000000 ) ;
#6 = ORGANIZATION ( 'NEURÈENÝ', 'NEURÈENÝ', '' ) ;
#7 = PERSON_AND_ORGANIZATION ( #169, #6 ) ;
#8 = ORIENTED_EDGE ( 'NONE', *, *, #180, .T. ) ;
#9 = CIRCLE ( 'NONE', #66, 6.000000000000000888 ) ;
#10 = AXIS2_PLACEMENT_3D ( 'NONE', #197, #233, #216 ) ;
#11 = EDGE_CURVE ( 'NONE', #141, #17, #9, .T. ) ;
#12 = DIRECTION ( 'NONE',  ( 1.000000000000000000, 0.000000000000000000, 0.000000000000000000 ) ) ;
#13 = CARTESIAN_POINT ( 'NONE',  ( 6.000000000000000888, 7.347880794884120722E-16, 400.0000000000000000 ) ) ;
#14 = FACE_OUTER_BOUND ( 'NONE', #144, .T. ) ;
#15 = DIRECTION ( 'NONE',  ( 1.000000000000000000, 0.000000000000000000, -0.000000000000000000 ) ) ;
#16 = EDGE_CURVE ( 'NONE', #238, #149, #220, .T. ) ;
#17 = VERTEX_POINT ( 'NONE', #13 ) ;
#18 = COORDINATED_UNIVERSAL_TIME_OFFSET ( 1, 0, .AHEAD. ) ;
#19 = DATE_AND_TIME ( #250, #102 ) ;
#20 = CC_DESIGN_PERSON_AND_ORGANIZATION_ASSIGNMENT ( #237, #145, ( #202 ) ) ;
#21 = APPROVAL_STATUS ( 'not_yet_approved' ) ;
#22 = APPROVAL_PERSON_ORGANIZATION ( #211, #140, #113 ) ;
#23 = CIRCLE ( 'NONE', #175, 9.000000000000000000 ) ;
#24 = DIRECTION ( 'NONE',  ( -0.000000000000000000, -0.000000000000000000, -1.000000000000000000 ) ) ;
#25 = ADVANCED_FACE ( 'NONE', ( #152 ), #129, .T. ) ;
#26 = CARTESIAN_POINT ( 'NONE',  ( 0.000000000000000000, 0.000000000000000000, 7.000000000000000000 ) ) ;
#27 = CARTESIAN_POINT ( 'NONE',  ( -9.000000000000000000, 0.000000000000000000, 7.000000000000000000 ) ) ;
#28 = EDGE_LOOP ( 'NONE', ( #98, #126 ) ) ;
#29 = DIRECTION ( 'NONE',  ( 0.000000000000000000, 0.000000000000000000, 1.000000000000000000 ) ) ;
#30 = PERSON_AND_ORGANIZATION_ROLE ( 'design_owner' ) ;
#31 = CC_DESIGN_DATE_AND_TIME_ASSIGNMENT ( #120, #124, ( #201 ) ) ;
#32 = COORDINATED_UNIVERSAL_TIME_OFFSET ( 1, 0, .AHEAD. ) ;
#33 = APPLICATION_PROTOCOL_DEFINITION ( 'international standard', 'config_control_design', 1994, #112 ) ;
#34 = DIRECTION ( 'NONE',  ( 0.000000000000000000, 0.000000000000000000, 1.000000000000000000 ) ) ;
#35 = FACE_OUTER_BOUND ( 'NONE', #89, .T. ) ;
#36 = FACE_BOUND ( 'NONE', #28, .T. ) ;
#37 = ADVANCED_FACE ( 'NONE', ( #170 ), #2, .T. ) ;
#38 = CARTESIAN_POINT ( 'NONE',  ( 0.000000000000000000, 0.000000000000000000, 7.000000000000000000 ) ) ;
#39 = CARTESIAN_POINT ( 'NONE',  ( 0.000000000000000000, 0.000000000000000000, 7.000000000000000000 ) ) ;
#40 = DIRECTION ( 'NONE',  ( -1.000000000000000000, 0.000000000000000000, 0.000000000000000000 ) ) ;
#41 = AXIS2_PLACEMENT_3D ( 'NONE', #119, #182, #71 ) ;
#42 = DATE_AND_TIME ( #64, #139 ) ;
#43 = DIRECTION ( 'NONE',  ( 1.000000000000000000, 0.000000000000000000, 0.000000000000000000 ) ) ;
#44 = MECHANICAL_CONTEXT ( 'NONE', #112, 'mechanical' ) ;
#45 = VECTOR ( 'NONE', #46, 1000.000000000000000 ) ;
#46 = DIRECTION ( 'NONE',  ( -0.000000000000000000, -0.000000000000000000, -1.000000000000000000 ) ) ;
#47 = ORIENTED_EDGE ( 'NONE', *, *, #241, .F. ) ;
#48 = APPROVAL_ROLE ( '' ) ;
#49 = EDGE_CURVE ( 'NONE', #136, #225, #23, .T. ) ;
#50 = CARTESIAN_POINT ( 'NONE',  ( 6.000000000000000888, 7.347880794884120722E-16, 7.000000000000000000 ) ) ;
#51 = APPROVAL_PERSON_ORGANIZATION ( #76, #199, #122 ) ;
#52 = PRODUCT_DEFINITION_SHAPE ( 'NONE', 'NONE',  #201 ) ;
#53 = FACE_OUTER_BOUND ( 'NONE', #229, .T. ) ;
#54 = VECTOR ( 'NONE', #166, 1000.000000000000000 ) ;
#55 = ORIENTED_EDGE ( 'NONE', *, *, #11, .T. ) ;
#56 = DATE_AND_TIME ( #195, #167 ) ;
#57 = AXIS2_PLACEMENT_3D ( 'NONE', #26, #190, #12 ) ;
#58 = ADVANCED_FACE ( 'NONE', ( #1 ), #208, .T. ) ;
#59 = ORIENTED_EDGE ( 'NONE', *, *, #49, .T. ) ;
#60 = SHAPE_DEFINITION_REPRESENTATION ( #52, #142 ) ;
#61 = AXIS2_PLACEMENT_3D ( 'NONE', #101, #99, #43 ) ;
#62 = ORIENTED_EDGE ( 'NONE', *, *, #217, .T. ) ;
#63 = CARTESIAN_POINT ( 'NONE',  ( 9.000000000000000000, 1.102182119232617714E-15, 7.000000000000000000 ) ) ;
#64 = CALENDAR_DATE ( 2023, 12, 2 ) ;
#65 = ORIENTED_EDGE ( 'NONE', *, *, #77, .T. ) ;
#66 = AXIS2_PLACEMENT_3D ( 'NONE', #109, #29, #133 ) ;
#67 = EDGE_LOOP ( 'NONE', ( #244, #194, #146, #62 ) ) ;
#68 = CALENDAR_DATE ( 2023, 12, 2 ) ;
#69 = DIRECTION ( 'NONE',  ( 0.000000000000000000, 0.000000000000000000, 1.000000000000000000 ) ) ;
#70 = DIRECTION ( 'NONE',  ( -1.000000000000000000, 0.000000000000000000, 0.000000000000000000 ) ) ;
#71 = DIRECTION ( 'NONE',  ( 1.000000000000000000, 0.000000000000000000, 0.000000000000000000 ) ) ;
#72 = EDGE_LOOP ( 'NONE', ( #171, #184, #93, #47 ) ) ;
#73 = AXIS2_PLACEMENT_3D ( 'NONE', #232, #179, #70 ) ;
#74 = ORIENTED_EDGE ( 'NONE', *, *, #49, .F. ) ;
#75 = CC_DESIGN_PERSON_AND_ORGANIZATION_ASSIGNMENT ( #185, #221, ( #201 ) ) ;
#76 = PERSON_AND_ORGANIZATION ( #169, #6 ) ;
#77 = EDGE_CURVE ( 'NONE', #149, #136, #103, .T. ) ;
#78 = PERSON_AND_ORGANIZATION ( #169, #6 ) ;
#79 = DIRECTION ( 'NONE',  ( 1.000000000000000000, 0.000000000000000000, 0.000000000000000000 ) ) ;
#80 = DIRECTION ( 'NONE',  ( 0.000000000000000000, 0.000000000000000000, 1.000000000000000000 ) ) ;
#81 = ORIENTED_EDGE ( 'NONE', *, *, #77, .F. ) ;
#82 = DIRECTION ( 'NONE',  ( 0.000000000000000000, 0.000000000000000000, 1.000000000000000000 ) ) ;
#83 = ORIENTED_EDGE ( 'NONE', *, *, #177, .T. ) ;
#84 = DIRECTION ( 'NONE',  ( -0.000000000000000000, -0.000000000000000000, -1.000000000000000000 ) ) ;
#85 = LOCAL_TIME ( 12, 5, 20.00000000000000000, #32 ) ;
#86 = CARTESIAN_POINT ( 'NONE',  ( 0.000000000000000000, 0.000000000000000000, 400.0000000000000000 ) ) ;
#87 = DIRECTION ( 'NONE',  ( -0.000000000000000000, -0.000000000000000000, -1.000000000000000000 ) ) ;
#88 = PLANE ( 'NONE',  #255 ) ;
#89 = EDGE_LOOP ( 'NONE', ( #254, #191, #65, #59 ) ) ;
#90 = EDGE_CURVE ( 'NONE', #17, #141, #143, .T. ) ;
#91 = EDGE_LOOP ( 'NONE', ( #157, #83, #8, #81 ) ) ;
#92 = DIRECTION ( 'NONE',  ( 1.000000000000000000, 0.000000000000000000, 0.000000000000000000 ) ) ;
#93 = ORIENTED_EDGE ( 'NONE', *, *, #235, .T. ) ;
#94 = AXIS2_PLACEMENT_3D ( 'NONE', #249, #156, #92 ) ;
#95 = EDGE_LOOP ( 'NONE', ( #55, #226 ) ) ;
#96 = VERTEX_POINT ( 'NONE', #230 ) ;
#97 = APPROVAL_DATE_TIME ( #19, #199 ) ;
#98 = ORIENTED_EDGE ( 'NONE', *, *, #217, .F. ) ;
#99 = DIRECTION ( 'NONE',  ( 0.000000000000000000, 0.000000000000000000, 1.000000000000000000 ) ) ;
#100 = DATE_AND_TIME ( #68, #85 ) ;
#101 = CARTESIAN_POINT ( 'NONE',  ( 0.000000000000000000, 0.000000000000000000, 0.000000000000000000 ) ) ;
#102 = LOCAL_TIME ( 12, 5, 20.00000000000000000, #234 ) ;
#103 = LINE ( 'NONE', #27, #54 ) ;
#104 = AXIS2_PLACEMENT_3D ( 'NONE', #107, #87, #153 ) ;
#105 = PRODUCT_RELATED_PRODUCT_CATEGORY ( 'detail', '', ( #137 ) ) ;
#106 = CC_DESIGN_SECURITY_CLASSIFICATION ( #202, ( #127 ) ) ;
#107 = CARTESIAN_POINT ( 'NONE',  ( 0.000000000000000000, 0.000000000000000000, 400.0000000000000000 ) ) ;
#108 =( LENGTH_UNIT ( ) NAMED_UNIT ( * ) SI_UNIT ( .MILLI., .METRE. ) );
#109 = CARTESIAN_POINT ( 'NONE',  ( 0.000000000000000000, 0.000000000000000000, 400.0000000000000000 ) ) ;
#110 = ADVANCED_FACE ( 'NONE', ( #53 ), #116, .F. ) ;
#111 = DIRECTION ( 'NONE',  ( 1.000000000000000000, 0.000000000000000000, -0.000000000000000000 ) ) ;
#112 = APPLICATION_CONTEXT ( 'configuration controlled 3d designs of mechanical parts and assemblies' ) ;
#113 = APPROVAL_ROLE ( '' ) ;
#114 = FACE_OUTER_BOUND ( 'NONE', #67, .T. ) ;
#115 = LINE ( 'NONE', #138, #5 ) ;
#116 = PLANE ( 'NONE',  #193 ) ;
#117 = APPLICATION_CONTEXT ( 'configuration controlled 3d designs of mechanical parts and assemblies' ) ;
#118 = LOCAL_TIME ( 12, 5, 20.00000000000000000, #161 ) ;
#119 = CARTESIAN_POINT ( 'NONE',  ( 0.000000000000000000, 0.000000000000000000, 400.0000000000000000 ) ) ;
#120 = DATE_AND_TIME ( #178, #118 ) ;
#121 = ADVANCED_FACE ( 'NONE', ( #114 ), #155, .T. ) ;
#122 = APPROVAL_ROLE ( '' ) ;
#123 = DIRECTION ( 'NONE',  ( 1.000000000000000000, 0.000000000000000000, 0.000000000000000000 ) ) ;
#124 = DATE_TIME_ROLE ( 'creation_date' ) ;
#125 = CC_DESIGN_PERSON_AND_ORGANIZATION_ASSIGNMENT ( #207, #30, ( #137 ) ) ;
#126 = ORIENTED_EDGE ( 'NONE', *, *, #235, .F. ) ;
#127 = PRODUCT_DEFINITION_FORMATION_WITH_SPECIFIED_SOURCE ( 'LIBOVOLNÝ', '', #137, .NOT_KNOWN. ) ;
#128 = ADVANCED_FACE ( 'NONE', ( #36, #14 ), #88, .T. ) ;
#129 = CYLINDRICAL_SURFACE ( 'NONE', #104, 6.000000000000000888 ) ;
#130 = AXIS2_PLACEMENT_3D ( 'NONE', #150, #82, #123 ) ;
#131 = ORIENTED_EDGE ( 'NONE', *, *, #16, .T. ) ;
#132 = CARTESIAN_POINT ( 'NONE',  ( -9.000000000000000000, 0.000000000000000000, 0.000000000000000000 ) ) ;
#133 = DIRECTION ( 'NONE',  ( 1.000000000000000000, 0.000000000000000000, 0.000000000000000000 ) ) ;
#134 =( NAMED_UNIT ( * ) PLANE_ANGLE_UNIT ( ) SI_UNIT ( $, .RADIAN. ) );
#135 = APPROVAL_DATE_TIME ( #56, #140 ) ;
#136 = VERTEX_POINT ( 'NONE', #132 ) ;
#137 = PRODUCT ( '950c', '950c', '', ( #44 ) ) ;
#138 = CARTESIAN_POINT ( 'NONE',  ( 9.000000000000000000, 1.102182119232617714E-15, 7.000000000000000000 ) ) ;
#139 = LOCAL_TIME ( 12, 5, 20.00000000000000000, #18 ) ;
#140 = APPROVAL ( #21, 'NEURÈENÝ' ) ;
#141 = VERTEX_POINT ( 'NONE', #253 ) ;
#142 = ADVANCED_BREP_SHAPE_REPRESENTATION ( '950c', ( #148, #198 ), #218 ) ;
#143 = CIRCLE ( 'NONE', #41, 6.000000000000000888 ) ;
#144 = EDGE_LOOP ( 'NONE', ( #224, #131 ) ) ;
#145 = PERSON_AND_ORGANIZATION_ROLE ( 'classification_officer' ) ;
#146 = ORIENTED_EDGE ( 'NONE', *, *, #241, .T. ) ;
#147 = EDGE_CURVE ( 'NONE', #149, #238, #188, .T. ) ;
#148 = MANIFOLD_SOLID_BREP ( 'Pøidat vysunutím3', #151 ) ;
#149 = VERTEX_POINT ( 'NONE', #159 ) ;
#150 = CARTESIAN_POINT ( 'NONE',  ( 0.000000000000000000, 0.000000000000000000, 7.000000000000000000 ) ) ;
#151 = CLOSED_SHELL ( 'NONE', ( #25, #37, #158, #128, #110, #121, #58 ) ) ;
#152 = FACE_OUTER_BOUND ( 'NONE', #72, .T. ) ;
#153 = DIRECTION ( 'NONE',  ( -1.000000000000000000, 0.000000000000000000, 0.000000000000000000 ) ) ;
#154 = CC_DESIGN_DATE_AND_TIME_ASSIGNMENT ( #100, #187, ( #202 ) ) ;
#155 = CYLINDRICAL_SURFACE ( 'NONE', #10, 6.000000000000000888 ) ;
#156 = DIRECTION ( 'NONE',  ( 0.000000000000000000, 0.000000000000000000, 1.000000000000000000 ) ) ;
#157 = ORIENTED_EDGE ( 'NONE', *, *, #16, .F. ) ;
#158 = ADVANCED_FACE ( 'NONE', ( #35 ), #213, .T. ) ;
#159 = CARTESIAN_POINT ( 'NONE',  ( -9.000000000000000000, 0.000000000000000000, 7.000000000000000000 ) ) ;
#160 = CARTESIAN_POINT ( 'NONE',  ( 0.000000000000000000, 0.000000000000000000, 0.000000000000000000 ) ) ;
#161 = COORDINATED_UNIVERSAL_TIME_OFFSET ( 1, 0, .AHEAD. ) ;
#162 = CC_DESIGN_APPROVAL ( #199, ( #127 ) ) ;
#163 = APPROVAL_STATUS ( 'not_yet_approved' ) ;
#164 = DESIGN_CONTEXT ( 'detailed design', #117, 'design' ) ;
#165 = PERSON_AND_ORGANIZATION_ROLE ( 'design_supplier' ) ;
#166 = DIRECTION ( 'NONE',  ( -0.000000000000000000, -0.000000000000000000, -1.000000000000000000 ) ) ;
#167 = LOCAL_TIME ( 12, 5, 20.00000000000000000, #200 ) ;
#168 = VERTEX_POINT ( 'NONE', #50 ) ;
#169 = PERSON ( 'NEURÈENÝ', 'NEURÈENÝ', 'NEURÈENÝ', ('NEURÈENÝ'), ('NEURÈENÝ'), ('NEURÈENÝ') ) ;
#170 = FACE_OUTER_BOUND ( 'NONE', #91, .T. ) ;
#171 = ORIENTED_EDGE ( 'NONE', *, *, #90, .F. ) ;
#172 = VECTOR ( 'NONE', #84, 1000.000000000000000 ) ;
#173 =( NAMED_UNIT ( * ) SI_UNIT ( $, .STERADIAN. ) SOLID_ANGLE_UNIT ( ) );
#174 = DIRECTION ( 'NONE',  ( 1.000000000000000000, 0.000000000000000000, -0.000000000000000000 ) ) ;
#175 = AXIS2_PLACEMENT_3D ( 'NONE', #160, #204, #219 ) ;
#176 = LINE ( 'NONE', #227, #172 ) ;
#177 = EDGE_CURVE ( 'NONE', #238, #225, #115, .T. ) ;
#178 = CALENDAR_DATE ( 2023, 12, 2 ) ;
#179 = DIRECTION ( 'NONE',  ( -0.000000000000000000, -0.000000000000000000, -1.000000000000000000 ) ) ;
#180 = EDGE_CURVE ( 'NONE', #225, #136, #240, .T. ) ;
#181 = PERSON_AND_ORGANIZATION_ROLE ( 'creator' ) ;
#182 = DIRECTION ( 'NONE',  ( 0.000000000000000000, 0.000000000000000000, 1.000000000000000000 ) ) ;
#183 = CIRCLE ( 'NONE', #130, 6.000000000000000888 ) ;
#184 = ORIENTED_EDGE ( 'NONE', *, *, #243, .T. ) ;
#185 = PERSON_AND_ORGANIZATION ( #169, #6 ) ;
#186 = CARTESIAN_POINT ( 'NONE',  ( 0.000000000000000000, 0.000000000000000000, 7.000000000000000000 ) ) ;
#187 = DATE_TIME_ROLE ( 'classification_date' ) ;
#188 = CIRCLE ( 'NONE', #94, 9.000000000000000000 ) ;
#189 = APPROVAL_DATE_TIME ( #42, #223 ) ;
#190 = DIRECTION ( 'NONE',  ( 0.000000000000000000, 0.000000000000000000, 1.000000000000000000 ) ) ;
#191 = ORIENTED_EDGE ( 'NONE', *, *, #147, .F. ) ;
#192 = APPLICATION_PROTOCOL_DEFINITION ( 'international standard', 'config_control_design', 1994, #117 ) ;
#193 = AXIS2_PLACEMENT_3D ( 'NONE', #215, #34, #111 ) ;
#194 = ORIENTED_EDGE ( 'NONE', *, *, #11, .F. ) ;
#195 = CALENDAR_DATE ( 2023, 12, 2 ) ;
#196 = UNCERTAINTY_MEASURE_WITH_UNIT (LENGTH_MEASURE( 1.000000000000000082E-05 ), #108, 'distance_accuracy_value', 'NONE');
#197 = CARTESIAN_POINT ( 'NONE',  ( 0.000000000000000000, 0.000000000000000000, 400.0000000000000000 ) ) ;
#198 = AXIS2_PLACEMENT_3D ( 'NONE', #251, #69, #245 ) ;
#199 = APPROVAL ( #163, 'NEURÈENÝ' ) ;
#200 = COORDINATED_UNIVERSAL_TIME_OFFSET ( 1, 0, .AHEAD. ) ;
#201 = PRODUCT_DEFINITION ( 'NEZNÁMÝ', '', #127, #164 ) ;
#202 = SECURITY_CLASSIFICATION ( '', '', #214 ) ;
#203 = AXIS2_PLACEMENT_3D ( 'NONE', #186, #239, #40 ) ;
#204 = DIRECTION ( 'NONE',  ( 0.000000000000000000, 0.000000000000000000, 1.000000000000000000 ) ) ;
#205 = DIRECTION ( 'NONE',  ( 0.000000000000000000, 0.000000000000000000, 1.000000000000000000 ) ) ;
#206 = CC_DESIGN_APPROVAL ( #140, ( #201 ) ) ;
#207 = PERSON_AND_ORGANIZATION ( #169, #6 ) ;
#208 = PLANE ( 'NONE',  #252 ) ;
#209 = LINE ( 'NONE', #210, #45 ) ;
#210 = CARTESIAN_POINT ( 'NONE',  ( -6.000000000000000888, 0.000000000000000000, 400.0000000000000000 ) ) ;
#211 = PERSON_AND_ORGANIZATION ( #169, #6 ) ;
#212 = CC_DESIGN_PERSON_AND_ORGANIZATION_ASSIGNMENT ( #3, #181, ( #127 ) ) ;
#213 = CYLINDRICAL_SURFACE ( 'NONE', #73, 9.000000000000000000 ) ;
#214 = SECURITY_CLASSIFICATION_LEVEL ( 'unclassified' ) ;
#215 = CARTESIAN_POINT ( 'NONE',  ( 0.000000000000000000, 0.000000000000000000, 0.000000000000000000 ) ) ;
#216 = DIRECTION ( 'NONE',  ( -1.000000000000000000, 0.000000000000000000, 0.000000000000000000 ) ) ;
#217 = EDGE_CURVE ( 'NONE', #96, #168, #183, .T. ) ;
#218 =( GEOMETRIC_REPRESENTATION_CONTEXT ( 3 ) GLOBAL_UNCERTAINTY_ASSIGNED_CONTEXT ( ( #196 ) ) GLOBAL_UNIT_ASSIGNED_CONTEXT ( ( #108, #134, #173 ) ) REPRESENTATION_CONTEXT ( 'NONE', 'WORKASPACE' ) );
#219 = DIRECTION ( 'NONE',  ( 1.000000000000000000, 0.000000000000000000, 0.000000000000000000 ) ) ;
#220 = CIRCLE ( 'NONE', #57, 9.000000000000000000 ) ;
#221 = PERSON_AND_ORGANIZATION_ROLE ( 'creator' ) ;
#222 = AXIS2_PLACEMENT_3D ( 'NONE', #39, #4, #79 ) ;
#223 = APPROVAL ( #242, 'NEURÈENÝ' ) ;
#224 = ORIENTED_EDGE ( 'NONE', *, *, #147, .T. ) ;
#225 = VERTEX_POINT ( 'NONE', #236 ) ;
#226 = ORIENTED_EDGE ( 'NONE', *, *, #90, .T. ) ;
#227 = CARTESIAN_POINT ( 'NONE',  ( 6.000000000000000888, 7.347880794884120722E-16, 400.0000000000000000 ) ) ;
#228 = CIRCLE ( 'NONE', #222, 6.000000000000000888 ) ;
#229 = EDGE_LOOP ( 'NONE', ( #74, #247 ) ) ;
#230 = CARTESIAN_POINT ( 'NONE',  ( -6.000000000000000888, 0.000000000000000000, 7.000000000000000000 ) ) ;
#231 = CC_DESIGN_APPROVAL ( #223, ( #202 ) ) ;
#232 = CARTESIAN_POINT ( 'NONE',  ( 0.000000000000000000, 0.000000000000000000, 7.000000000000000000 ) ) ;
#233 = DIRECTION ( 'NONE',  ( -0.000000000000000000, -0.000000000000000000, -1.000000000000000000 ) ) ;
#234 = COORDINATED_UNIVERSAL_TIME_OFFSET ( 1, 0, .AHEAD. ) ;
#235 = EDGE_CURVE ( 'NONE', #168, #96, #228, .T. ) ;
#236 = CARTESIAN_POINT ( 'NONE',  ( 9.000000000000000000, 1.102182119232617714E-15, 0.000000000000000000 ) ) ;
#237 = PERSON_AND_ORGANIZATION ( #169, #6 ) ;
#238 = VERTEX_POINT ( 'NONE', #63 ) ;
#239 = DIRECTION ( 'NONE',  ( -0.000000000000000000, -0.000000000000000000, -1.000000000000000000 ) ) ;
#240 = CIRCLE ( 'NONE', #61, 9.000000000000000000 ) ;
#241 = EDGE_CURVE ( 'NONE', #141, #96, #209, .T. ) ;
#242 = APPROVAL_STATUS ( 'not_yet_approved' ) ;
#243 = EDGE_CURVE ( 'NONE', #17, #168, #176, .T. ) ;
#244 = ORIENTED_EDGE ( 'NONE', *, *, #243, .F. ) ;
#245 = DIRECTION ( 'NONE',  ( 1.000000000000000000, 0.000000000000000000, 0.000000000000000000 ) ) ;
#246 = CC_DESIGN_PERSON_AND_ORGANIZATION_ASSIGNMENT ( #78, #165, ( #127 ) ) ;
#247 = ORIENTED_EDGE ( 'NONE', *, *, #180, .F. ) ;
#248 = APPROVAL_PERSON_ORGANIZATION ( #7, #223, #48 ) ;
#249 = CARTESIAN_POINT ( 'NONE',  ( 0.000000000000000000, 0.000000000000000000, 7.000000000000000000 ) ) ;
#250 = CALENDAR_DATE ( 2023, 12, 2 ) ;
#251 = CARTESIAN_POINT ( 'NONE',  ( 0.000000000000000000, 0.000000000000000000, 0.000000000000000000 ) ) ;
#252 = AXIS2_PLACEMENT_3D ( 'NONE', #86, #80, #174 ) ;
#253 = CARTESIAN_POINT ( 'NONE',  ( -6.000000000000000888, 0.000000000000000000, 400.0000000000000000 ) ) ;
#254 = ORIENTED_EDGE ( 'NONE', *, *, #177, .F. ) ;
#255 = AXIS2_PLACEMENT_3D ( 'NONE', #38, #205, #15 ) ;
ENDSEC;
END-ISO-10303-21;
