ISO-10303-21;
HEADER;
FILE_DESCRIPTION (( 'STEP AP203' ),
    '1' );
FILE_NAME ('99ca.STEP',
    '2022-07-07T10:02:23',
    ( '' ),
    ( '' ),
    'SwSTEP 2.0',
    'SolidWorks 2019',
    '' );
FILE_SCHEMA (( 'CONFIG_CONTROL_DESIGN' ));
ENDSEC;

DATA;
#1 = DIRECTION ( 'NONE',  ( -1.000000000000000000, 0.000000000000000000, 0.000000000000000000 ) ) ;
#2 = DIRECTION ( 'NONE',  ( 0.000000000000000000, 0.000000000000000000, -1.000000000000000000 ) ) ;
#3 = CYLINDRICAL_SURFACE ( 'NONE', #78, 4.000000000000000000 ) ;
#4 = DIRECTION ( 'NONE',  ( -0.000000000000000000, -0.000000000000000000, -1.000000000000000000 ) ) ;
#5 = CIRCLE ( 'NONE', #288, 7.000000000000000000 ) ;
#6 = CARTESIAN_POINT ( 'NONE',  ( 7.000000000000000000, 8.572527594031473190E-16, 5.000000000000000000 ) ) ;
#7 = APPLICATION_PROTOCOL_DEFINITION ( 'international standard', 'config_control_design', 1994, #291 ) ;
#8 = COORDINATED_UNIVERSAL_TIME_OFFSET ( 1, 0, .AHEAD. ) ;
#9 = APPROVAL ( #203, 'NEURÈENÝ' ) ;
#10 = ORIENTED_EDGE ( 'NONE', *, *, #106, .T. ) ;
#11 = COORDINATED_UNIVERSAL_TIME_OFFSET ( 1, 0, .AHEAD. ) ;
#12 = EDGE_LOOP ( 'NONE', ( #231, #301 ) ) ;
#13 = VECTOR ( 'NONE', #33, 1000.000000000000000 ) ;
#14 = CC_DESIGN_APPROVAL ( #23, ( #138 ) ) ;
#15 = APPLICATION_CONTEXT ( 'configuration controlled 3d designs of mechanical parts and assemblies' ) ;
#16 = DATE_AND_TIME ( #253, #294 ) ;
#17 = VERTEX_POINT ( 'NONE', #278 ) ;
#18 = APPROVAL_DATE_TIME ( #112, #23 ) ;
#19 = ORIENTED_EDGE ( 'NONE', *, *, #235, .F. ) ;
#20 = EDGE_CURVE ( 'NONE', #111, #162, #59, .T. ) ;
#21 = ORIENTED_EDGE ( 'NONE', *, *, #204, .F. ) ;
#22 = PLANE ( 'NONE',  #298 ) ;
#23 = APPROVAL ( #161, 'NEURÈENÝ' ) ;
#24 = DIRECTION ( 'NONE',  ( -0.000000000000000000, -0.000000000000000000, -1.000000000000000000 ) ) ;
#25 = DIRECTION ( 'NONE',  ( 0.000000000000000000, 0.000000000000000000, 1.000000000000000000 ) ) ;
#26 = CIRCLE ( 'NONE', #136, 7.000000000000000000 ) ;
#27 = CARTESIAN_POINT ( 'NONE',  ( 0.000000000000000000, 0.000000000000000000, 0.000000000000000000 ) ) ;
#28 = DESIGN_CONTEXT ( 'detailed design', #291, 'design' ) ;
#29 = MANIFOLD_SOLID_BREP ( 'Zaoblit1', #39 ) ;
#30 = MECHANICAL_CONTEXT ( 'NONE', #15, 'mechanical' ) ;
#31 = AXIS2_PLACEMENT_3D ( 'NONE', #173, #258, #260 ) ;
#32 = EDGE_CURVE ( 'NONE', #38, #119, #236, .T. ) ;
#33 = DIRECTION ( 'NONE',  ( -0.000000000000000000, -0.000000000000000000, -1.000000000000000000 ) ) ;
#34 = CIRCLE ( 'NONE', #171, 0.1999999999999996503 ) ;
#35 = DATE_AND_TIME ( #118, #289 ) ;
#36 = ORIENTED_EDGE ( 'NONE', *, *, #172, .F. ) ;
#37 = ORIENTED_EDGE ( 'NONE', *, *, #128, .F. ) ;
#38 = VERTEX_POINT ( 'NONE', #218 ) ;
#39 = CLOSED_SHELL ( 'NONE', ( #307, #223, #181, #115, #135, #210, #95, #270, #71 ) ) ;
#40 = CC_DESIGN_PERSON_AND_ORGANIZATION_ASSIGNMENT ( #230, #296, ( #138 ) ) ;
#41 = EDGE_LOOP ( 'NONE', ( #19, #37, #62, #273 ) ) ;
#42 = DIRECTION ( 'NONE',  ( 0.000000000000000000, 0.000000000000000000, 1.000000000000000000 ) ) ;
#43 = AXIS2_PLACEMENT_3D ( 'NONE', #216, #96, #305 ) ;
#44 = PRODUCT_DEFINITION ( 'NEZNÁMÝ', '', #125, #28 ) ;
#45 = CC_DESIGN_APPROVAL ( #9, ( #125 ) ) ;
#46 = CARTESIAN_POINT ( 'NONE',  ( -4.200000000000000178, 5.143516556418882928E-16, 4.999999999999991118 ) ) ;
#47 = DIRECTION ( 'NONE',  ( -0.000000000000000000, -0.000000000000000000, -1.000000000000000000 ) ) ;
#48 = FACE_OUTER_BOUND ( 'NONE', #12, .T. ) ;
#49 = APPROVAL_PERSON_ORGANIZATION ( #202, #132, #232 ) ;
#50 = CARTESIAN_POINT ( 'NONE',  ( 0.000000000000000000, 0.000000000000000000, 0.000000000000000000 ) ) ;
#51 = EDGE_CURVE ( 'NONE', #248, #297, #166, .T. ) ;
#52 = CARTESIAN_POINT ( 'NONE',  ( 0.000000000000000000, 0.000000000000000000, 5.199999999999982414 ) ) ;
#53 = DIRECTION ( 'NONE',  ( -0.000000000000000000, -0.000000000000000000, -1.000000000000000000 ) ) ;
#54 = UNCERTAINTY_MEASURE_WITH_UNIT (LENGTH_MEASURE( 1.000000000000000082E-05 ), #265, 'distance_accuracy_value', 'NONE');
#55 = CC_DESIGN_PERSON_AND_ORGANIZATION_ASSIGNMENT ( #65, #157, ( #125 ) ) ;
#56 = DIRECTION ( 'NONE',  ( 0.000000000000000000, 0.000000000000000000, 1.000000000000000000 ) ) ;
#57 = AXIS2_PLACEMENT_3D ( 'NONE', #295, #221, #269 ) ;
#58 = COORDINATED_UNIVERSAL_TIME_OFFSET ( 1, 0, .AHEAD. ) ;
#59 = CIRCLE ( 'NONE', #222, 4.000000000000000000 ) ;
#60 = ORIENTED_EDGE ( 'NONE', *, *, #172, .T. ) ;
#61 = CALENDAR_DATE ( 2022, 7, 7 ) ;
#62 = ORIENTED_EDGE ( 'NONE', *, *, #249, .T. ) ;
#63 = COORDINATED_UNIVERSAL_TIME_OFFSET ( 1, 0, .AHEAD. ) ;
#64 = ORIENTED_EDGE ( 'NONE', *, *, #160, .F. ) ;
#65 = PERSON_AND_ORGANIZATION ( #279, #134 ) ;
#66 = ORIENTED_EDGE ( 'NONE', *, *, #81, .F. ) ;
#67 = TOROIDAL_SURFACE ( 'NONE', #224, 4.200000000000000178, 0.2000000000000000111 ) ;
#68 = CC_DESIGN_SECURITY_CLASSIFICATION ( #138, ( #125 ) ) ;
#69 = COORDINATED_UNIVERSAL_TIME_OFFSET ( 1, 0, .AHEAD. ) ;
#70 = CARTESIAN_POINT ( 'NONE',  ( 4.200000000000000178, 0.000000000000000000, 5.199999999999982414 ) ) ;
#71 = ADVANCED_FACE ( 'NONE', ( #75 ), #264, .F. ) ;
#72 = DIRECTION ( 'NONE',  ( 1.000000000000000000, 0.000000000000000000, 0.000000000000000000 ) ) ;
#73 = APPROVAL_PERSON_ORGANIZATION ( #274, #9, #85 ) ;
#74 = DIRECTION ( 'NONE',  ( 1.000000000000000000, 0.000000000000000000, 0.000000000000000000 ) ) ;
#75 = FACE_OUTER_BOUND ( 'NONE', #117, .T. ) ;
#76 = CC_DESIGN_DATE_AND_TIME_ASSIGNMENT ( #163, #271, ( #138 ) ) ;
#77 = DIRECTION ( 'NONE',  ( -1.000000000000000000, 0.000000000000000000, 0.000000000000000000 ) ) ;
#78 = AXIS2_PLACEMENT_3D ( 'NONE', #197, #4, #154 ) ;
#79 = CARTESIAN_POINT ( 'NONE',  ( 0.000000000000000000, 0.000000000000000000, 635.0000000000000000 ) ) ;
#80 = DIRECTION ( 'NONE',  ( 1.000000000000000000, 0.000000000000000000, 0.000000000000000000 ) ) ;
#81 = EDGE_CURVE ( 'NONE', #119, #214, #94, .T. ) ;
#82 =( NAMED_UNIT ( * ) SI_UNIT ( $, .STERADIAN. ) SOLID_ANGLE_UNIT ( ) );
#83 = AXIS2_PLACEMENT_3D ( 'NONE', #141, #25, #192 ) ;
#84 = CARTESIAN_POINT ( 'NONE',  ( -7.000000000000000000, 0.000000000000000000, 5.000000000000000000 ) ) ;
#85 = APPROVAL_ROLE ( '' ) ;
#86 = DATE_TIME_ROLE ( 'creation_date' ) ;
#87 = VECTOR ( 'NONE', #24, 1000.000000000000000 ) ;
#88 = ORIENTED_EDGE ( 'NONE', *, *, #281, .T. ) ;
#89 = CARTESIAN_POINT ( 'NONE',  ( 0.000000000000000000, 0.000000000000000000, 635.0000000000000000 ) ) ;
#90 = CC_DESIGN_PERSON_AND_ORGANIZATION_ASSIGNMENT ( #255, #182, ( #125 ) ) ;
#91 = APPROVAL_ROLE ( '' ) ;
#92 = VERTEX_POINT ( 'NONE', #123 ) ;
#93 = ORIENTED_EDGE ( 'NONE', *, *, #235, .T. ) ;
#94 = CIRCLE ( 'NONE', #130, 4.200000000000000178 ) ;
#95 = ADVANCED_FACE ( 'NONE', ( #237 ), #127, .T. ) ;
#96 = DIRECTION ( 'NONE',  ( 0.000000000000000000, 0.000000000000000000, 1.000000000000000000 ) ) ;
#97 = DIRECTION ( 'NONE',  ( 0.000000000000000000, 0.000000000000000000, 1.000000000000000000 ) ) ;
#98 = FACE_OUTER_BOUND ( 'NONE', #189, .T. ) ;
#99 = VECTOR ( 'NONE', #153, 1000.000000000000000 ) ;
#100 = DIRECTION ( 'NONE',  ( 1.000000000000000000, 0.000000000000000000, 0.000000000000000000 ) ) ;
#101 = EDGE_CURVE ( 'NONE', #297, #272, #304, .T. ) ;
#102 = DIRECTION ( 'NONE',  ( 0.000000000000000000, -1.000000000000000000, 0.000000000000000000 ) ) ;
#103 = CARTESIAN_POINT ( 'NONE',  ( -4.000000000000000000, 0.000000000000000000, 635.0000000000000000 ) ) ;
#104 = AXIS2_PLACEMENT_3D ( 'NONE', #191, #42, #74 ) ;
#105 = CARTESIAN_POINT ( 'NONE',  ( 7.000000000000000000, 8.572527594031473190E-16, 0.000000000000000000 ) ) ;
#106 = EDGE_CURVE ( 'NONE', #297, #248, #109, .T. ) ;
#107 = CARTESIAN_POINT ( 'NONE',  ( -7.000000000000000000, 0.000000000000000000, 5.000000000000000000 ) ) ;
#108 = DIRECTION ( 'NONE',  ( 1.000000000000000000, 0.000000000000000000, -0.000000000000000000 ) ) ;
#109 = CIRCLE ( 'NONE', #83, 7.000000000000000000 ) ;
#110 = APPROVAL_DATE_TIME ( #16, #9 ) ;
#111 = VERTEX_POINT ( 'NONE', #122 ) ;
#112 = DATE_AND_TIME ( #225, #201 ) ;
#113 = AXIS2_PLACEMENT_3D ( 'NONE', #27, #195, #108 ) ;
#114 = EDGE_LOOP ( 'NONE', ( #227, #93, #60, #168 ) ) ;
#115 = ADVANCED_FACE ( 'NONE', ( #240 ), #170, .T. ) ;
#116 = PERSON_AND_ORGANIZATION ( #279, #134 ) ;
#117 = EDGE_LOOP ( 'NONE', ( #167, #36, #186, #66 ) ) ;
#118 = CALENDAR_DATE ( 2022, 7, 7 ) ;
#119 = VERTEX_POINT ( 'NONE', #46 ) ;
#120 = ORIENTED_EDGE ( 'NONE', *, *, #106, .F. ) ;
#121 = DIRECTION ( 'NONE',  ( -1.000000000000000000, 1.224646799147353454E-16, 0.000000000000000000 ) ) ;
#122 = CARTESIAN_POINT ( 'NONE',  ( 4.000000000000000000, 4.898587196589412829E-16, 635.0000000000000000 ) ) ;
#123 = CARTESIAN_POINT ( 'NONE',  ( -7.000000000000000000, 0.000000000000000000, 0.000000000000000000 ) ) ;
#124 = AXIS2_PLACEMENT_3D ( 'NONE', #261, #47, #1 ) ;
#125 = PRODUCT_DEFINITION_FORMATION_WITH_SPECIFIED_SOURCE ( 'LIBOVOLNÝ', '', #251, .NOT_KNOWN. ) ;
#126 = DIRECTION ( 'NONE',  ( -1.000000000000000000, 0.000000000000000000, 0.000000000000000000 ) ) ;
#127 = CYLINDRICAL_SURFACE ( 'NONE', #151, 4.000000000000000000 ) ;
#128 = EDGE_CURVE ( 'NONE', #162, #111, #283, .T. ) ;
#129 = PLANE ( 'NONE',  #229 ) ;
#130 = AXIS2_PLACEMENT_3D ( 'NONE', #282, #286, #72 ) ;
#131 = DIRECTION ( 'NONE',  ( 0.000000000000000000, 0.000000000000000000, 1.000000000000000000 ) ) ;
#132 = APPROVAL ( #139, 'NEURÈENÝ' ) ;
#133 = SHAPE_DEFINITION_REPRESENTATION ( #187, #155 ) ;
#134 = ORGANIZATION ( 'NEURÈENÝ', 'NEURÈENÝ', '' ) ;
#135 = ADVANCED_FACE ( 'NONE', ( #217, #280 ), #22, .T. ) ;
#136 = AXIS2_PLACEMENT_3D ( 'NONE', #178, #177, #80 ) ;
#137 = CARTESIAN_POINT ( 'NONE',  ( -4.200000000000000178, 5.143516556418882928E-16, 5.199999999999982414 ) ) ;
#138 = SECURITY_CLASSIFICATION ( '', '', #165 ) ;
#139 = APPROVAL_STATUS ( 'not_yet_approved' ) ;
#140 = ORIENTED_EDGE ( 'NONE', *, *, #81, .T. ) ;
#141 = CARTESIAN_POINT ( 'NONE',  ( 0.000000000000000000, 0.000000000000000000, 5.000000000000000000 ) ) ;
#142 = AXIS2_PLACEMENT_3D ( 'NONE', #175, #262, #143 ) ;
#143 = DIRECTION ( 'NONE',  ( 1.000000000000000000, 0.000000000000000000, 0.000000000000000000 ) ) ;
#144 = CC_DESIGN_PERSON_AND_ORGANIZATION_ASSIGNMENT ( #179, #247, ( #44 ) ) ;
#145 = CARTESIAN_POINT ( 'NONE',  ( 7.000000000000000000, 8.572527594031473190E-16, 5.000000000000000000 ) ) ;
#146 = PLANE ( 'NONE',  #113 ) ;
#147 = DIRECTION ( 'NONE',  ( 0.000000000000000000, 0.000000000000000000, 1.000000000000000000 ) ) ;
#148 = EDGE_CURVE ( 'NONE', #92, #272, #5, .T. ) ;
#149 = DIRECTION ( 'NONE',  ( 0.000000000000000000, 0.000000000000000000, 1.000000000000000000 ) ) ;
#150 = FACE_OUTER_BOUND ( 'NONE', #276, .T. ) ;
#151 = AXIS2_PLACEMENT_3D ( 'NONE', #238, #169, #126 ) ;
#152 = DIRECTION ( 'NONE',  ( 1.000000000000000000, 0.000000000000000000, 0.000000000000000000 ) ) ;
#153 = DIRECTION ( 'NONE',  ( -0.000000000000000000, -0.000000000000000000, -1.000000000000000000 ) ) ;
#154 = DIRECTION ( 'NONE',  ( -1.000000000000000000, 0.000000000000000000, 0.000000000000000000 ) ) ;
#155 = ADVANCED_BREP_SHAPE_REPRESENTATION ( '99ca', ( #29, #188 ), #277 ) ;
#156 = CC_DESIGN_APPROVAL ( #132, ( #44 ) ) ;
#157 = PERSON_AND_ORGANIZATION_ROLE ( 'creator' ) ;
#158 = VECTOR ( 'NONE', #53, 1000.000000000000000 ) ;
#159 = ORIENTED_EDGE ( 'NONE', *, *, #215, .T. ) ;
#160 = EDGE_CURVE ( 'NONE', #17, #214, #34, .T. ) ;
#161 = APPROVAL_STATUS ( 'not_yet_approved' ) ;
#162 = VERTEX_POINT ( 'NONE', #306 ) ;
#163 = DATE_AND_TIME ( #61, #193 ) ;
#164 = ORIENTED_EDGE ( 'NONE', *, *, #101, .F. ) ;
#165 = SECURITY_CLASSIFICATION_LEVEL ( 'unclassified' ) ;
#166 = CIRCLE ( 'NONE', #43, 7.000000000000000000 ) ;
#167 = ORIENTED_EDGE ( 'NONE', *, *, #32, .F. ) ;
#168 = ORIENTED_EDGE ( 'NONE', *, *, #249, .F. ) ;
#169 = DIRECTION ( 'NONE',  ( -0.000000000000000000, -0.000000000000000000, -1.000000000000000000 ) ) ;
#170 = CYLINDRICAL_SURFACE ( 'NONE', #303, 7.000000000000000000 ) ;
#171 = AXIS2_PLACEMENT_3D ( 'NONE', #70, #102, #2 ) ;
#172 = EDGE_CURVE ( 'NONE', #17, #38, #213, .T. ) ;
#173 = CARTESIAN_POINT ( 'NONE',  ( 0.000000000000000000, 0.000000000000000000, 5.199999999999982414 ) ) ;
#174 = DIRECTION ( 'NONE',  ( 1.000000000000000000, 0.000000000000000000, 0.000000000000000000 ) ) ;
#175 = CARTESIAN_POINT ( 'NONE',  ( 0.000000000000000000, 0.000000000000000000, 635.0000000000000000 ) ) ;
#176 = DIRECTION ( 'NONE',  ( 1.000000000000000000, 0.000000000000000000, -0.000000000000000000 ) ) ;
#177 = DIRECTION ( 'NONE',  ( 0.000000000000000000, 0.000000000000000000, 1.000000000000000000 ) ) ;
#178 = CARTESIAN_POINT ( 'NONE',  ( 0.000000000000000000, 0.000000000000000000, 0.000000000000000000 ) ) ;
#179 = PERSON_AND_ORGANIZATION ( #279, #134 ) ;
#180 = ORIENTED_EDGE ( 'NONE', *, *, #101, .T. ) ;
#181 = ADVANCED_FACE ( 'NONE', ( #98 ), #284, .T. ) ;
#182 = PERSON_AND_ORGANIZATION_ROLE ( 'design_supplier' ) ;
#183 = LOCAL_TIME ( 12, 2, 23.00000000000000000, #63 ) ;
#184 = ORIENTED_EDGE ( 'NONE', *, *, #226, .F. ) ;
#185 = ORIENTED_EDGE ( 'NONE', *, *, #215, .F. ) ;
#186 = ORIENTED_EDGE ( 'NONE', *, *, #160, .T. ) ;
#187 = PRODUCT_DEFINITION_SHAPE ( 'NONE', 'NONE',  #44 ) ;
#188 = AXIS2_PLACEMENT_3D ( 'NONE', #267, #56, #152 ) ;
#189 = EDGE_LOOP ( 'NONE', ( #120, #180, #88, #185 ) ) ;
#190 = CARTESIAN_POINT ( 'NONE',  ( 0.000000000000000000, 0.000000000000000000, 5.000000000000000000 ) ) ;
#191 = CARTESIAN_POINT ( 'NONE',  ( 0.000000000000000000, 0.000000000000000000, 5.199999999999982414 ) ) ;
#192 = DIRECTION ( 'NONE',  ( 1.000000000000000000, 0.000000000000000000, 0.000000000000000000 ) ) ;
#193 = LOCAL_TIME ( 12, 2, 23.00000000000000000, #69 ) ;
#194 = CARTESIAN_POINT ( 'NONE',  ( 0.000000000000000000, 0.000000000000000000, 5.000000000000000000 ) ) ;
#195 = DIRECTION ( 'NONE',  ( 0.000000000000000000, 0.000000000000000000, 1.000000000000000000 ) ) ;
#196 = CC_DESIGN_PERSON_AND_ORGANIZATION_ASSIGNMENT ( #268, #244, ( #251 ) ) ;
#197 = CARTESIAN_POINT ( 'NONE',  ( 0.000000000000000000, 0.000000000000000000, 635.0000000000000000 ) ) ;
#198 = DIRECTION ( 'NONE',  ( 1.000000000000000000, 0.000000000000000000, 0.000000000000000000 ) ) ;
#199 = CC_DESIGN_DATE_AND_TIME_ASSIGNMENT ( #299, #86, ( #44 ) ) ;
#200 = CARTESIAN_POINT ( 'NONE',  ( 4.200000000000000178, 0.000000000000000000, 4.999999999999991118 ) ) ;
#201 = LOCAL_TIME ( 12, 2, 23.00000000000000000, #58 ) ;
#202 = PERSON_AND_ORGANIZATION ( #279, #134 ) ;
#203 = APPROVAL_STATUS ( 'not_yet_approved' ) ;
#204 = EDGE_CURVE ( 'NONE', #214, #119, #252, .T. ) ;
#205 = APPROVAL_DATE_TIME ( #35, #132 ) ;
#206 = EDGE_LOOP ( 'NONE', ( #164, #302, #159, #212 ) ) ;
#207 = AXIS2_PLACEMENT_3D ( 'NONE', #194, #285, #174 ) ;
#208 = ORIENTED_EDGE ( 'NONE', *, *, #204, .T. ) ;
#209 = EDGE_LOOP ( 'NONE', ( #254, #10 ) ) ;
#210 = ADVANCED_FACE ( 'NONE', ( #48 ), #146, .F. ) ;
#211 = CALENDAR_DATE ( 2022, 7, 7 ) ;
#212 = ORIENTED_EDGE ( 'NONE', *, *, #148, .T. ) ;
#213 = CIRCLE ( 'NONE', #31, 4.000000000000000000 ) ;
#214 = VERTEX_POINT ( 'NONE', #200 ) ;
#215 = EDGE_CURVE ( 'NONE', #248, #92, #292, .T. ) ;
#216 = CARTESIAN_POINT ( 'NONE',  ( 0.000000000000000000, 0.000000000000000000, 5.000000000000000000 ) ) ;
#217 = FACE_BOUND ( 'NONE', #300, .T. ) ;
#218 = CARTESIAN_POINT ( 'NONE',  ( -4.000000000000000000, 0.000000000000000000, 5.199999999999982414 ) ) ;
#219 = DIRECTION ( 'NONE',  ( -0.000000000000000000, -0.000000000000000000, -1.000000000000000000 ) ) ;
#220 = FACE_OUTER_BOUND ( 'NONE', #114, .T. ) ;
#221 = DIRECTION ( 'NONE',  ( 0.000000000000000000, 0.000000000000000000, 1.000000000000000000 ) ) ;
#222 = AXIS2_PLACEMENT_3D ( 'NONE', #89, #275, #250 ) ;
#223 = ADVANCED_FACE ( 'NONE', ( #220 ), #3, .T. ) ;
#224 = AXIS2_PLACEMENT_3D ( 'NONE', #52, #149, #198 ) ;
#225 = CALENDAR_DATE ( 2022, 7, 7 ) ;
#226 = EDGE_CURVE ( 'NONE', #38, #17, #293, .T. ) ;
#227 = ORIENTED_EDGE ( 'NONE', *, *, #20, .F. ) ;
#228 = EDGE_LOOP ( 'NONE', ( #184, #256, #21, #64 ) ) ;
#229 = AXIS2_PLACEMENT_3D ( 'NONE', #79, #131, #176 ) ;
#230 = PERSON_AND_ORGANIZATION ( #279, #134 ) ;
#231 = ORIENTED_EDGE ( 'NONE', *, *, #148, .F. ) ;
#232 = APPROVAL_ROLE ( '' ) ;
#233 = ORIENTED_EDGE ( 'NONE', *, *, #128, .T. ) ;
#234 = ORIENTED_EDGE ( 'NONE', *, *, #20, .T. ) ;
#235 = EDGE_CURVE ( 'NONE', #111, #17, #287, .T. ) ;
#236 = CIRCLE ( 'NONE', #246, 0.1999999999999996503 ) ;
#237 = FACE_OUTER_BOUND ( 'NONE', #41, .T. ) ;
#238 = CARTESIAN_POINT ( 'NONE',  ( 0.000000000000000000, 0.000000000000000000, 635.0000000000000000 ) ) ;
#239 = DIRECTION ( 'NONE',  ( 1.000000000000000000, 0.000000000000000000, -0.000000000000000000 ) ) ;
#240 = FACE_OUTER_BOUND ( 'NONE', #206, .T. ) ;
#241 = DIRECTION ( 'NONE',  ( 1.224646799147353207E-16, 1.000000000000000000, -0.000000000000000000 ) ) ;
#242 =( NAMED_UNIT ( * ) PLANE_ANGLE_UNIT ( ) SI_UNIT ( $, .RADIAN. ) );
#243 = APPLICATION_PROTOCOL_DEFINITION ( 'international standard', 'config_control_design', 1994, #15 ) ;
#244 = PERSON_AND_ORGANIZATION_ROLE ( 'design_owner' ) ;
#245 = FACE_OUTER_BOUND ( 'NONE', #228, .T. ) ;
#246 = AXIS2_PLACEMENT_3D ( 'NONE', #137, #241, #121 ) ;
#247 = PERSON_AND_ORGANIZATION_ROLE ( 'creator' ) ;
#248 = VERTEX_POINT ( 'NONE', #107 ) ;
#249 = EDGE_CURVE ( 'NONE', #162, #38, #290, .T. ) ;
#250 = DIRECTION ( 'NONE',  ( 1.000000000000000000, 0.000000000000000000, 0.000000000000000000 ) ) ;
#251 = PRODUCT ( '99ca', '99ca', '', ( #30 ) ) ;
#252 = CIRCLE ( 'NONE', #207, 4.200000000000000178 ) ;
#253 = CALENDAR_DATE ( 2022, 7, 7 ) ;
#254 = ORIENTED_EDGE ( 'NONE', *, *, #51, .T. ) ;
#255 = PERSON_AND_ORGANIZATION ( #279, #134 ) ;
#256 = ORIENTED_EDGE ( 'NONE', *, *, #32, .T. ) ;
#257 = PRODUCT_RELATED_PRODUCT_CATEGORY ( 'detail', '', ( #251 ) ) ;
#258 = DIRECTION ( 'NONE',  ( 0.000000000000000000, 0.000000000000000000, 1.000000000000000000 ) ) ;
#259 = APPROVAL_PERSON_ORGANIZATION ( #116, #23, #91 ) ;
#260 = DIRECTION ( 'NONE',  ( 1.000000000000000000, 0.000000000000000000, 0.000000000000000000 ) ) ;
#261 = CARTESIAN_POINT ( 'NONE',  ( 0.000000000000000000, 0.000000000000000000, 5.000000000000000000 ) ) ;
#262 = DIRECTION ( 'NONE',  ( 0.000000000000000000, 0.000000000000000000, 1.000000000000000000 ) ) ;
#263 = CARTESIAN_POINT ( 'NONE',  ( 0.000000000000000000, 0.000000000000000000, 5.000000000000000000 ) ) ;
#264 = TOROIDAL_SURFACE ( 'NONE', #104, 4.200000000000000178, 0.2000000000000000111 ) ;
#265 =( LENGTH_UNIT ( ) NAMED_UNIT ( * ) SI_UNIT ( .MILLI., .METRE. ) );
#266 = CARTESIAN_POINT ( 'NONE',  ( 4.000000000000000000, 4.898587196589412829E-16, 635.0000000000000000 ) ) ;
#267 = CARTESIAN_POINT ( 'NONE',  ( 0.000000000000000000, 0.000000000000000000, 0.000000000000000000 ) ) ;
#268 = PERSON_AND_ORGANIZATION ( #279, #134 ) ;
#269 = DIRECTION ( 'NONE',  ( 1.000000000000000000, 0.000000000000000000, 0.000000000000000000 ) ) ;
#270 = ADVANCED_FACE ( 'NONE', ( #150 ), #129, .T. ) ;
#271 = DATE_TIME_ROLE ( 'classification_date' ) ;
#272 = VERTEX_POINT ( 'NONE', #105 ) ;
#273 = ORIENTED_EDGE ( 'NONE', *, *, #226, .T. ) ;
#274 = PERSON_AND_ORGANIZATION ( #279, #134 ) ;
#275 = DIRECTION ( 'NONE',  ( 0.000000000000000000, 0.000000000000000000, 1.000000000000000000 ) ) ;
#276 = EDGE_LOOP ( 'NONE', ( #233, #234 ) ) ;
#277 =( GEOMETRIC_REPRESENTATION_CONTEXT ( 3 ) GLOBAL_UNCERTAINTY_ASSIGNED_CONTEXT ( ( #54 ) ) GLOBAL_UNIT_ASSIGNED_CONTEXT ( ( #265, #242, #82 ) ) REPRESENTATION_CONTEXT ( 'NONE', 'WORKASPACE' ) );
#278 = CARTESIAN_POINT ( 'NONE',  ( 4.000000000000000000, 4.898587196589412829E-16, 5.199999999999982414 ) ) ;
#279 = PERSON ( 'NEURÈENÝ', 'NEURÈENÝ', 'NEURÈENÝ', ('NEURÈENÝ'), ('NEURÈENÝ'), ('NEURÈENÝ') ) ;
#280 = FACE_OUTER_BOUND ( 'NONE', #209, .T. ) ;
#281 = EDGE_CURVE ( 'NONE', #272, #92, #26, .T. ) ;
#282 = CARTESIAN_POINT ( 'NONE',  ( 0.000000000000000000, 0.000000000000000000, 5.000000000000000000 ) ) ;
#283 = CIRCLE ( 'NONE', #142, 4.000000000000000000 ) ;
#284 = CYLINDRICAL_SURFACE ( 'NONE', #124, 7.000000000000000000 ) ;
#285 = DIRECTION ( 'NONE',  ( -0.000000000000000000, -0.000000000000000000, -1.000000000000000000 ) ) ;
#286 = DIRECTION ( 'NONE',  ( -0.000000000000000000, -0.000000000000000000, -1.000000000000000000 ) ) ;
#287 = LINE ( 'NONE', #266, #99 ) ;
#288 = AXIS2_PLACEMENT_3D ( 'NONE', #50, #147, #100 ) ;
#289 = LOCAL_TIME ( 12, 2, 23.00000000000000000, #8 ) ;
#290 = LINE ( 'NONE', #103, #158 ) ;
#291 = APPLICATION_CONTEXT ( 'configuration controlled 3d designs of mechanical parts and assemblies' ) ;
#292 = LINE ( 'NONE', #84, #13 ) ;
#293 = CIRCLE ( 'NONE', #57, 4.000000000000000000 ) ;
#294 = LOCAL_TIME ( 12, 2, 23.00000000000000000, #11 ) ;
#295 = CARTESIAN_POINT ( 'NONE',  ( 0.000000000000000000, 0.000000000000000000, 5.199999999999982414 ) ) ;
#296 = PERSON_AND_ORGANIZATION_ROLE ( 'classification_officer' ) ;
#297 = VERTEX_POINT ( 'NONE', #6 ) ;
#298 = AXIS2_PLACEMENT_3D ( 'NONE', #263, #97, #239 ) ;
#299 = DATE_AND_TIME ( #211, #183 ) ;
#300 = EDGE_LOOP ( 'NONE', ( #208, #140 ) ) ;
#301 = ORIENTED_EDGE ( 'NONE', *, *, #281, .F. ) ;
#302 = ORIENTED_EDGE ( 'NONE', *, *, #51, .F. ) ;
#303 = AXIS2_PLACEMENT_3D ( 'NONE', #190, #219, #77 ) ;
#304 = LINE ( 'NONE', #145, #87 ) ;
#305 = DIRECTION ( 'NONE',  ( 1.000000000000000000, 0.000000000000000000, 0.000000000000000000 ) ) ;
#306 = CARTESIAN_POINT ( 'NONE',  ( -4.000000000000000000, 0.000000000000000000, 635.0000000000000000 ) ) ;
#307 = ADVANCED_FACE ( 'NONE', ( #245 ), #67, .F. ) ;
ENDSEC;
END-ISO-10303-21;
