ISO-10303-21;
HEADER;
FILE_DESCRIPTION (( 'STEP AP203' ),
    '1' );
FILE_NAME ('7087.STEP',
    '2023-02-12T11:07:14',
    ( '' ),
    ( '' ),
    'SwSTEP 2.0',
    'SolidWorks 2019',
    '' );
FILE_SCHEMA (( 'CONFIG_CONTROL_DESIGN' ));
ENDSEC;

DATA;
#1 = PERSON_AND_ORGANIZATION ( #20, #65 ) ;
#2 = DIRECTION ( 'NONE',  ( -0.000000000000000000, -0.000000000000000000, -1.000000000000000000 ) ) ;
#3 = DATE_AND_TIME ( #7, #198 ) ;
#4 = DIRECTION ( 'NONE',  ( -0.000000000000000000, -0.000000000000000000, -1.000000000000000000 ) ) ;
#5 = CC_DESIGN_PERSON_AND_ORGANIZATION_ASSIGNMENT ( #100, #249, ( #163 ) ) ;
#6 = CARTESIAN_POINT ( 'NONE',  ( 0.000000000000000000, 0.000000000000000000, 5.000000000000000000 ) ) ;
#7 = CALENDAR_DATE ( 2023, 12, 2 ) ;
#8 = PLANE ( 'NONE',  #195 ) ;
#9 = DIRECTION ( 'NONE',  ( -0.000000000000000000, -0.000000000000000000, -1.000000000000000000 ) ) ;
#10 = CARTESIAN_POINT ( 'NONE',  ( -5.500000000000000000, 0.000000000000000000, 5.000000000000000000 ) ) ;
#11 = DIRECTION ( 'NONE',  ( -0.000000000000000000, -0.000000000000000000, -1.000000000000000000 ) ) ;
#12 = DIRECTION ( 'NONE',  ( 1.000000000000000000, 0.000000000000000000, 0.000000000000000000 ) ) ;
#13 = DATE_AND_TIME ( #121, #40 ) ;
#14 =( NAMED_UNIT ( * ) SI_UNIT ( $, .STERADIAN. ) SOLID_ANGLE_UNIT ( ) );
#15 =( NAMED_UNIT ( * ) PLANE_ANGLE_UNIT ( ) SI_UNIT ( $, .RADIAN. ) );
#16 = ORIENTED_EDGE ( 'NONE', *, *, #218, .F. ) ;
#17 = DIRECTION ( 'NONE',  ( 1.000000000000000000, 0.000000000000000000, 0.000000000000000000 ) ) ;
#18 = VERTEX_POINT ( 'NONE', #127 ) ;
#19 = CIRCLE ( 'NONE', #55, 8.000000000000000000 ) ;
#20 = PERSON ( 'NEURÈENÝ', 'NEURÈENÝ', 'NEURÈENÝ', ('NEURÈENÝ'), ('NEURÈENÝ'), ('NEURÈENÝ') ) ;
#21 = EDGE_CURVE ( 'NONE', #146, #71, #111, .T. ) ;
#22 = AXIS2_PLACEMENT_3D ( 'NONE', #62, #137, #12 ) ;
#23 = DIRECTION ( 'NONE',  ( 0.000000000000000000, 0.000000000000000000, 1.000000000000000000 ) ) ;
#24 = EDGE_LOOP ( 'NONE', ( #147, #152 ) ) ;
#25 = APPROVAL_ROLE ( '' ) ;
#26 = CC_DESIGN_PERSON_AND_ORGANIZATION_ASSIGNMENT ( #162, #216, ( #57 ) ) ;
#27 = CIRCLE ( 'NONE', #98, 5.500000000000000000 ) ;
#28 = DIRECTION ( 'NONE',  ( 0.000000000000000000, 0.000000000000000000, 1.000000000000000000 ) ) ;
#29 = COORDINATED_UNIVERSAL_TIME_OFFSET ( 1, 0, .AHEAD. ) ;
#30 = DIRECTION ( 'NONE',  ( -1.000000000000000000, 0.000000000000000000, 0.000000000000000000 ) ) ;
#31 = FACE_OUTER_BOUND ( 'NONE', #214, .T. ) ;
#32 = EDGE_CURVE ( 'NONE', #141, #217, #19, .T. ) ;
#33 = AXIS2_PLACEMENT_3D ( 'NONE', #83, #138, #17 ) ;
#34 = DIRECTION ( 'NONE',  ( -1.000000000000000000, 0.000000000000000000, 0.000000000000000000 ) ) ;
#35 = DIRECTION ( 'NONE',  ( -0.000000000000000000, -0.000000000000000000, -1.000000000000000000 ) ) ;
#36 = CIRCLE ( 'NONE', #191, 5.500000000000000000 ) ;
#37 = APPLICATION_CONTEXT ( 'configuration controlled 3d designs of mechanical parts and assemblies' ) ;
#38 = ADVANCED_FACE ( 'NONE', ( #90, #170 ), #254, .T. ) ;
#39 = COORDINATED_UNIVERSAL_TIME_OFFSET ( 1, 0, .AHEAD. ) ;
#40 = LOCAL_TIME ( 12, 7, 14.00000000000000000, #39 ) ;
#41 = PERSON_AND_ORGANIZATION ( #20, #65 ) ;
#42 = ADVANCED_BREP_SHAPE_REPRESENTATION ( '7087', ( #56, #33 ), #226 ) ;
#43 = AXIS2_PLACEMENT_3D ( 'NONE', #92, #60, #245 ) ;
#44 = COORDINATED_UNIVERSAL_TIME_OFFSET ( 1, 0, .AHEAD. ) ;
#45 = ORIENTED_EDGE ( 'NONE', *, *, #148, .F. ) ;
#46 = APPROVAL_PERSON_ORGANIZATION ( #1, #211, #209 ) ;
#47 = APPLICATION_PROTOCOL_DEFINITION ( 'international standard', 'config_control_design', 1994, #200 ) ;
#48 = EDGE_LOOP ( 'NONE', ( #176, #253 ) ) ;
#49 = ORIENTED_EDGE ( 'NONE', *, *, #63, .T. ) ;
#50 = AXIS2_PLACEMENT_3D ( 'NONE', #77, #242, #228 ) ;
#51 = LINE ( 'NONE', #110, #144 ) ;
#52 = PERSON_AND_ORGANIZATION ( #20, #65 ) ;
#53 = CC_DESIGN_DATE_AND_TIME_ASSIGNMENT ( #59, #112, ( #165 ) ) ;
#54 = APPROVAL_DATE_TIME ( #13, #211 ) ;
#55 = AXIS2_PLACEMENT_3D ( 'NONE', #236, #151, #225 ) ;
#56 = MANIFOLD_SOLID_BREP ( 'Pøidat vysunutím3', #149 ) ;
#57 = PRODUCT_DEFINITION ( 'NEZNÁMÝ', '', #210, #120 ) ;
#58 = CARTESIAN_POINT ( 'NONE',  ( -5.500000000000000000, 0.000000000000000000, 800.0000000000000000 ) ) ;
#59 = DATE_AND_TIME ( #202, #169 ) ;
#60 = DIRECTION ( 'NONE',  ( 0.000000000000000000, 0.000000000000000000, 1.000000000000000000 ) ) ;
#61 = VECTOR ( 'NONE', #80, 1000.000000000000000 ) ;
#62 = CARTESIAN_POINT ( 'NONE',  ( 0.000000000000000000, 0.000000000000000000, 0.000000000000000000 ) ) ;
#63 = EDGE_CURVE ( 'NONE', #18, #160, #193, .T. ) ;
#64 = APPROVAL_STATUS ( 'not_yet_approved' ) ;
#65 = ORGANIZATION ( 'NEURÈENÝ', 'NEURÈENÝ', '' ) ;
#66 = ORIENTED_EDGE ( 'NONE', *, *, #96, .F. ) ;
#67 = COORDINATED_UNIVERSAL_TIME_OFFSET ( 1, 0, .AHEAD. ) ;
#68 = VERTEX_POINT ( 'NONE', #182 ) ;
#69 = PRODUCT_DEFINITION_SHAPE ( 'NONE', 'NONE',  #57 ) ;
#70 = VERTEX_POINT ( 'NONE', #150 ) ;
#71 = VERTEX_POINT ( 'NONE', #220 ) ;
#72 = CC_DESIGN_DATE_AND_TIME_ASSIGNMENT ( #180, #123, ( #57 ) ) ;
#73 = ORIENTED_EDGE ( 'NONE', *, *, #148, .T. ) ;
#74 = SECURITY_CLASSIFICATION_LEVEL ( 'unclassified' ) ;
#75 = EDGE_CURVE ( 'NONE', #146, #141, #51, .T. ) ;
#76 = LOCAL_TIME ( 12, 7, 14.00000000000000000, #67 ) ;
#77 = CARTESIAN_POINT ( 'NONE',  ( 0.000000000000000000, 0.000000000000000000, 5.000000000000000000 ) ) ;
#78 = CARTESIAN_POINT ( 'NONE',  ( 5.500000000000000000, 6.735557395310442023E-16, 800.0000000000000000 ) ) ;
#79 = EDGE_CURVE ( 'NONE', #70, #68, #36, .T. ) ;
#80 = DIRECTION ( 'NONE',  ( -0.000000000000000000, -0.000000000000000000, -1.000000000000000000 ) ) ;
#81 = APPROVAL_DATE_TIME ( #251, #197 ) ;
#82 = ORIENTED_EDGE ( 'NONE', *, *, #255, .T. ) ;
#83 = CARTESIAN_POINT ( 'NONE',  ( 0.000000000000000000, 0.000000000000000000, 0.000000000000000000 ) ) ;
#84 = EDGE_LOOP ( 'NONE', ( #128, #212, #178, #124 ) ) ;
#85 = AXIS2_PLACEMENT_3D ( 'NONE', #229, #247, #175 ) ;
#86 = EDGE_LOOP ( 'NONE', ( #101, #73, #166, #108 ) ) ;
#87 = ADVANCED_FACE ( 'NONE', ( #222 ), #130, .T. ) ;
#88 = CC_DESIGN_APPROVAL ( #211, ( #210 ) ) ;
#89 = AXIS2_PLACEMENT_3D ( 'NONE', #203, #4, #131 ) ;
#90 = FACE_BOUND ( 'NONE', #145, .T. ) ;
#91 = ADVANCED_FACE ( 'NONE', ( #134 ), #190, .T. ) ;
#92 = CARTESIAN_POINT ( 'NONE',  ( 0.000000000000000000, 0.000000000000000000, 800.0000000000000000 ) ) ;
#93 = APPROVAL_PERSON_ORGANIZATION ( #183, #208, #25 ) ;
#94 = CARTESIAN_POINT ( 'NONE',  ( 0.000000000000000000, 0.000000000000000000, 5.000000000000000000 ) ) ;
#95 = DIRECTION ( 'NONE',  ( 0.000000000000000000, 0.000000000000000000, 1.000000000000000000 ) ) ;
#96 = EDGE_CURVE ( 'NONE', #160, #18, #179, .T. ) ;
#97 = LINE ( 'NONE', #58, #186 ) ;
#98 = AXIS2_PLACEMENT_3D ( 'NONE', #118, #95, #194 ) ;
#99 = LINE ( 'NONE', #78, #61 ) ;
#100 = PERSON_AND_ORGANIZATION ( #20, #65 ) ;
#101 = ORIENTED_EDGE ( 'NONE', *, *, #201, .F. ) ;
#102 = ADVANCED_FACE ( 'NONE', ( #184 ), #172, .T. ) ;
#103 = CALENDAR_DATE ( 2023, 12, 2 ) ;
#104 =( LENGTH_UNIT ( ) NAMED_UNIT ( * ) SI_UNIT ( .MILLI., .METRE. ) );
#105 = APPROVAL_PERSON_ORGANIZATION ( #41, #197, #143 ) ;
#106 = ORIENTED_EDGE ( 'NONE', *, *, #79, .T. ) ;
#107 = APPROVAL_STATUS ( 'not_yet_approved' ) ;
#108 = ORIENTED_EDGE ( 'NONE', *, *, #75, .F. ) ;
#109 = DIRECTION ( 'NONE',  ( 1.000000000000000000, 0.000000000000000000, 0.000000000000000000 ) ) ;
#110 = CARTESIAN_POINT ( 'NONE',  ( -8.000000000000000000, 0.000000000000000000, 5.000000000000000000 ) ) ;
#111 = CIRCLE ( 'NONE', #246, 8.000000000000000000 ) ;
#112 = DATE_TIME_ROLE ( 'classification_date' ) ;
#113 = DIRECTION ( 'NONE',  ( 0.000000000000000000, 0.000000000000000000, 1.000000000000000000 ) ) ;
#114 = APPROVAL_STATUS ( 'not_yet_approved' ) ;
#115 = PERSON_AND_ORGANIZATION ( #20, #65 ) ;
#116 = AXIS2_PLACEMENT_3D ( 'NONE', #167, #28, #199 ) ;
#117 = CYLINDRICAL_SURFACE ( 'NONE', #237, 5.500000000000000000 ) ;
#118 = CARTESIAN_POINT ( 'NONE',  ( 0.000000000000000000, 0.000000000000000000, 800.0000000000000000 ) ) ;
#119 = ADVANCED_FACE ( 'NONE', ( #243 ), #135, .T. ) ;
#120 = DESIGN_CONTEXT ( 'detailed design', #200, 'design' ) ;
#121 = CALENDAR_DATE ( 2023, 12, 2 ) ;
#122 = AXIS2_PLACEMENT_3D ( 'NONE', #94, #155, #30 ) ;
#123 = DATE_TIME_ROLE ( 'creation_date' ) ;
#124 = ORIENTED_EDGE ( 'NONE', *, *, #96, .T. ) ;
#125 = VECTOR ( 'NONE', #35, 1000.000000000000000 ) ;
#126 = CC_DESIGN_PERSON_AND_ORGANIZATION_ASSIGNMENT ( #52, #239, ( #210 ) ) ;
#127 = CARTESIAN_POINT ( 'NONE',  ( 5.500000000000000000, 6.735557395310442023E-16, 5.000000000000000000 ) ) ;
#128 = ORIENTED_EDGE ( 'NONE', *, *, #231, .F. ) ;
#129 = PERSON_AND_ORGANIZATION_ROLE ( 'classification_officer' ) ;
#130 = CYLINDRICAL_SURFACE ( 'NONE', #89, 8.000000000000000000 ) ;
#131 = DIRECTION ( 'NONE',  ( -1.000000000000000000, 0.000000000000000000, 0.000000000000000000 ) ) ;
#132 = APPROVAL_DATE_TIME ( #3, #208 ) ;
#133 = EDGE_CURVE ( 'NONE', #217, #141, #139, .T. ) ;
#134 = FACE_OUTER_BOUND ( 'NONE', #86, .T. ) ;
#135 = PLANE ( 'NONE',  #43 ) ;
#136 = DIRECTION ( 'NONE',  ( -0.000000000000000000, -0.000000000000000000, -1.000000000000000000 ) ) ;
#137 = DIRECTION ( 'NONE',  ( 0.000000000000000000, 0.000000000000000000, 1.000000000000000000 ) ) ;
#138 = DIRECTION ( 'NONE',  ( 0.000000000000000000, 0.000000000000000000, 1.000000000000000000 ) ) ;
#139 = CIRCLE ( 'NONE', #22, 8.000000000000000000 ) ;
#140 = MECHANICAL_CONTEXT ( 'NONE', #37, 'mechanical' ) ;
#141 = VERTEX_POINT ( 'NONE', #154 ) ;
#142 = ORIENTED_EDGE ( 'NONE', *, *, #255, .F. ) ;
#143 = APPROVAL_ROLE ( '' ) ;
#144 = VECTOR ( 'NONE', #2, 1000.000000000000000 ) ;
#145 = EDGE_LOOP ( 'NONE', ( #66, #240 ) ) ;
#146 = VERTEX_POINT ( 'NONE', #156 ) ;
#147 = ORIENTED_EDGE ( 'NONE', *, *, #21, .T. ) ;
#148 = EDGE_CURVE ( 'NONE', #71, #217, #173, .T. ) ;
#149 = CLOSED_SHELL ( 'NONE', ( #244, #91, #87, #38, #241, #102, #119 ) ) ;
#150 = CARTESIAN_POINT ( 'NONE',  ( -5.500000000000000000, 0.000000000000000000, 800.0000000000000000 ) ) ;
#151 = DIRECTION ( 'NONE',  ( 0.000000000000000000, 0.000000000000000000, 1.000000000000000000 ) ) ;
#152 = ORIENTED_EDGE ( 'NONE', *, *, #201, .T. ) ;
#153 = PERSON_AND_ORGANIZATION ( #20, #65 ) ;
#154 = CARTESIAN_POINT ( 'NONE',  ( -8.000000000000000000, 0.000000000000000000, 0.000000000000000000 ) ) ;
#155 = DIRECTION ( 'NONE',  ( -0.000000000000000000, -0.000000000000000000, -1.000000000000000000 ) ) ;
#156 = CARTESIAN_POINT ( 'NONE',  ( -8.000000000000000000, 0.000000000000000000, 5.000000000000000000 ) ) ;
#157 = CC_DESIGN_APPROVAL ( #197, ( #57 ) ) ;
#158 = CARTESIAN_POINT ( 'NONE',  ( 0.000000000000000000, 0.000000000000000000, 800.0000000000000000 ) ) ;
#159 = CARTESIAN_POINT ( 'NONE',  ( 0.000000000000000000, 0.000000000000000000, 0.000000000000000000 ) ) ;
#160 = VERTEX_POINT ( 'NONE', #10 ) ;
#161 = CIRCLE ( 'NONE', #50, 8.000000000000000000 ) ;
#162 = PERSON_AND_ORGANIZATION ( #20, #65 ) ;
#163 = PRODUCT ( '7087', '7087', '', ( #140 ) ) ;
#164 = APPLICATION_PROTOCOL_DEFINITION ( 'international standard', 'config_control_design', 1994, #37 ) ;
#165 = SECURITY_CLASSIFICATION ( '', '', #74 ) ;
#166 = ORIENTED_EDGE ( 'NONE', *, *, #133, .T. ) ;
#167 = CARTESIAN_POINT ( 'NONE',  ( 0.000000000000000000, 0.000000000000000000, 5.000000000000000000 ) ) ;
#168 = DIRECTION ( 'NONE',  ( 0.000000000000000000, 0.000000000000000000, 1.000000000000000000 ) ) ;
#169 = LOCAL_TIME ( 12, 7, 14.00000000000000000, #188 ) ;
#170 = FACE_OUTER_BOUND ( 'NONE', #24, .T. ) ;
#171 = CC_DESIGN_PERSON_AND_ORGANIZATION_ASSIGNMENT ( #153, #221, ( #210 ) ) ;
#172 = CYLINDRICAL_SURFACE ( 'NONE', #215, 5.500000000000000000 ) ;
#173 = LINE ( 'NONE', #189, #125 ) ;
#174 = DIRECTION ( 'NONE',  ( -1.000000000000000000, 0.000000000000000000, 0.000000000000000000 ) ) ;
#175 = DIRECTION ( 'NONE',  ( 1.000000000000000000, 0.000000000000000000, 0.000000000000000000 ) ) ;
#176 = ORIENTED_EDGE ( 'NONE', *, *, #32, .F. ) ;
#177 = CC_DESIGN_APPROVAL ( #208, ( #165 ) ) ;
#178 = ORIENTED_EDGE ( 'NONE', *, *, #218, .T. ) ;
#179 = CIRCLE ( 'NONE', #85, 5.500000000000000000 ) ;
#180 = DATE_AND_TIME ( #213, #76 ) ;
#181 = DIRECTION ( 'NONE',  ( 1.000000000000000000, 0.000000000000000000, 0.000000000000000000 ) ) ;
#182 = CARTESIAN_POINT ( 'NONE',  ( 5.500000000000000000, 6.735557395310442023E-16, 800.0000000000000000 ) ) ;
#183 = PERSON_AND_ORGANIZATION ( #20, #65 ) ;
#184 = FACE_OUTER_BOUND ( 'NONE', #84, .T. ) ;
#185 = CARTESIAN_POINT ( 'NONE',  ( 0.000000000000000000, 0.000000000000000000, 800.0000000000000000 ) ) ;
#186 = VECTOR ( 'NONE', #136, 1000.000000000000000 ) ;
#187 = LOCAL_TIME ( 12, 7, 14.00000000000000000, #44 ) ;
#188 = COORDINATED_UNIVERSAL_TIME_OFFSET ( 1, 0, .AHEAD. ) ;
#189 = CARTESIAN_POINT ( 'NONE',  ( 8.000000000000000000, 9.797174393178825657E-16, 5.000000000000000000 ) ) ;
#190 = CYLINDRICAL_SURFACE ( 'NONE', #122, 8.000000000000000000 ) ;
#191 = AXIS2_PLACEMENT_3D ( 'NONE', #238, #113, #223 ) ;
#192 = EDGE_LOOP ( 'NONE', ( #45, #250, #233, #196 ) ) ;
#193 = CIRCLE ( 'NONE', #230, 5.500000000000000000 ) ;
#194 = DIRECTION ( 'NONE',  ( 1.000000000000000000, 0.000000000000000000, 0.000000000000000000 ) ) ;
#195 = AXIS2_PLACEMENT_3D ( 'NONE', #159, #227, #205 ) ;
#196 = ORIENTED_EDGE ( 'NONE', *, *, #32, .T. ) ;
#197 = APPROVAL ( #107, 'NEURÈENÝ' ) ;
#198 = LOCAL_TIME ( 12, 7, 14.00000000000000000, #29 ) ;
#199 = DIRECTION ( 'NONE',  ( 1.000000000000000000, 0.000000000000000000, -0.000000000000000000 ) ) ;
#200 = APPLICATION_CONTEXT ( 'configuration controlled 3d designs of mechanical parts and assemblies' ) ;
#201 = EDGE_CURVE ( 'NONE', #71, #146, #161, .T. ) ;
#202 = CALENDAR_DATE ( 2023, 12, 2 ) ;
#203 = CARTESIAN_POINT ( 'NONE',  ( 0.000000000000000000, 0.000000000000000000, 5.000000000000000000 ) ) ;
#204 = CARTESIAN_POINT ( 'NONE',  ( 0.000000000000000000, 0.000000000000000000, 5.000000000000000000 ) ) ;
#205 = DIRECTION ( 'NONE',  ( 1.000000000000000000, 0.000000000000000000, -0.000000000000000000 ) ) ;
#206 = CARTESIAN_POINT ( 'NONE',  ( 8.000000000000000000, 9.797174393178825657E-16, 0.000000000000000000 ) ) ;
#207 = UNCERTAINTY_MEASURE_WITH_UNIT (LENGTH_MEASURE( 1.000000000000000082E-05 ), #104, 'distance_accuracy_value', 'NONE');
#208 = APPROVAL ( #114, 'NEURÈENÝ' ) ;
#209 = APPROVAL_ROLE ( '' ) ;
#210 = PRODUCT_DEFINITION_FORMATION_WITH_SPECIFIED_SOURCE ( 'LIBOVOLNÝ', '', #163, .NOT_KNOWN. ) ;
#211 = APPROVAL ( #64, 'NEURÈENÝ' ) ;
#212 = ORIENTED_EDGE ( 'NONE', *, *, #79, .F. ) ;
#213 = CALENDAR_DATE ( 2023, 12, 2 ) ;
#214 = EDGE_LOOP ( 'NONE', ( #142, #232, #49, #16 ) ) ;
#215 = AXIS2_PLACEMENT_3D ( 'NONE', #158, #11, #174 ) ;
#216 = PERSON_AND_ORGANIZATION_ROLE ( 'creator' ) ;
#217 = VERTEX_POINT ( 'NONE', #206 ) ;
#218 = EDGE_CURVE ( 'NONE', #70, #160, #97, .T. ) ;
#219 = CC_DESIGN_PERSON_AND_ORGANIZATION_ASSIGNMENT ( #115, #129, ( #165 ) ) ;
#220 = CARTESIAN_POINT ( 'NONE',  ( 8.000000000000000000, 9.797174393178825657E-16, 5.000000000000000000 ) ) ;
#221 = PERSON_AND_ORGANIZATION_ROLE ( 'creator' ) ;
#222 = FACE_OUTER_BOUND ( 'NONE', #192, .T. ) ;
#223 = DIRECTION ( 'NONE',  ( 1.000000000000000000, 0.000000000000000000, 0.000000000000000000 ) ) ;
#224 = SHAPE_DEFINITION_REPRESENTATION ( #69, #42 ) ;
#225 = DIRECTION ( 'NONE',  ( 1.000000000000000000, 0.000000000000000000, 0.000000000000000000 ) ) ;
#226 =( GEOMETRIC_REPRESENTATION_CONTEXT ( 3 ) GLOBAL_UNCERTAINTY_ASSIGNED_CONTEXT ( ( #207 ) ) GLOBAL_UNIT_ASSIGNED_CONTEXT ( ( #104, #15, #14 ) ) REPRESENTATION_CONTEXT ( 'NONE', 'WORKASPACE' ) );
#227 = DIRECTION ( 'NONE',  ( 0.000000000000000000, 0.000000000000000000, 1.000000000000000000 ) ) ;
#228 = DIRECTION ( 'NONE',  ( 1.000000000000000000, 0.000000000000000000, 0.000000000000000000 ) ) ;
#229 = CARTESIAN_POINT ( 'NONE',  ( 0.000000000000000000, 0.000000000000000000, 5.000000000000000000 ) ) ;
#230 = AXIS2_PLACEMENT_3D ( 'NONE', #6, #23, #109 ) ;
#231 = EDGE_CURVE ( 'NONE', #68, #18, #99, .T. ) ;
#232 = ORIENTED_EDGE ( 'NONE', *, *, #231, .T. ) ;
#233 = ORIENTED_EDGE ( 'NONE', *, *, #75, .T. ) ;
#234 = CC_DESIGN_SECURITY_CLASSIFICATION ( #165, ( #210 ) ) ;
#235 = PRODUCT_RELATED_PRODUCT_CATEGORY ( 'detail', '', ( #163 ) ) ;
#236 = CARTESIAN_POINT ( 'NONE',  ( 0.000000000000000000, 0.000000000000000000, 0.000000000000000000 ) ) ;
#237 = AXIS2_PLACEMENT_3D ( 'NONE', #185, #9, #34 ) ;
#238 = CARTESIAN_POINT ( 'NONE',  ( 0.000000000000000000, 0.000000000000000000, 800.0000000000000000 ) ) ;
#239 = PERSON_AND_ORGANIZATION_ROLE ( 'design_supplier' ) ;
#240 = ORIENTED_EDGE ( 'NONE', *, *, #63, .F. ) ;
#241 = ADVANCED_FACE ( 'NONE', ( #248 ), #8, .F. ) ;
#242 = DIRECTION ( 'NONE',  ( 0.000000000000000000, 0.000000000000000000, 1.000000000000000000 ) ) ;
#243 = FACE_OUTER_BOUND ( 'NONE', #252, .T. ) ;
#244 = ADVANCED_FACE ( 'NONE', ( #31 ), #117, .T. ) ;
#245 = DIRECTION ( 'NONE',  ( 1.000000000000000000, 0.000000000000000000, -0.000000000000000000 ) ) ;
#246 = AXIS2_PLACEMENT_3D ( 'NONE', #204, #168, #181 ) ;
#247 = DIRECTION ( 'NONE',  ( 0.000000000000000000, 0.000000000000000000, 1.000000000000000000 ) ) ;
#248 = FACE_OUTER_BOUND ( 'NONE', #48, .T. ) ;
#249 = PERSON_AND_ORGANIZATION_ROLE ( 'design_owner' ) ;
#250 = ORIENTED_EDGE ( 'NONE', *, *, #21, .F. ) ;
#251 = DATE_AND_TIME ( #103, #187 ) ;
#252 = EDGE_LOOP ( 'NONE', ( #106, #82 ) ) ;
#253 = ORIENTED_EDGE ( 'NONE', *, *, #133, .F. ) ;
#254 = PLANE ( 'NONE',  #116 ) ;
#255 = EDGE_CURVE ( 'NONE', #68, #70, #27, .T. ) ;
ENDSEC;
END-ISO-10303-21;
