ISO-10303-21;
HEADER;
FILE_DESCRIPTION (( 'STEP AP203' ),
    '1' );
FILE_NAME ('c77f.STEP',
    '2022-07-07T10:09:03',
    ( '' ),
    ( '' ),
    'SwSTEP 2.0',
    'SolidWorks 2019',
    '' );
FILE_SCHEMA (( 'CONFIG_CONTROL_DESIGN' ));
ENDSEC;

DATA;
#1 = DIRECTION ( 'NONE',  ( -0.000000000000000000, -0.000000000000000000, -1.000000000000000000 ) ) ;
#2 = CARTESIAN_POINT ( 'NONE',  ( 0.000000000000000000, 0.000000000000000000, 5.000000000000000000 ) ) ;
#3 = APPROVAL_DATE_TIME ( #209, #212 ) ;
#4 = FACE_OUTER_BOUND ( 'NONE', #112, .T. ) ;
#5 = ORGANIZATION ( 'NEURÈENÝ', 'NEURÈENÝ', '' ) ;
#6 = PRODUCT_RELATED_PRODUCT_CATEGORY ( 'detail', '', ( #20 ) ) ;
#7 = DIRECTION ( 'NONE',  ( -0.000000000000000000, -0.000000000000000000, -1.000000000000000000 ) ) ;
#8 = DIRECTION ( 'NONE',  ( -0.000000000000000000, -0.000000000000000000, -1.000000000000000000 ) ) ;
#9 = CARTESIAN_POINT ( 'NONE',  ( 0.000000000000000000, 0.000000000000000000, 5.199999999999982414 ) ) ;
#10 = AXIS2_PLACEMENT_3D ( 'NONE', #271, #54, #14 ) ;
#11 = AXIS2_PLACEMENT_3D ( 'NONE', #198, #97, #288 ) ;
#12 = ADVANCED_FACE ( 'NONE', ( #141, #261 ), #137, .T. ) ;
#13 = DIRECTION ( 'NONE',  ( 0.000000000000000000, 0.000000000000000000, 1.000000000000000000 ) ) ;
#14 = DIRECTION ( 'NONE',  ( 1.000000000000000000, 0.000000000000000000, 0.000000000000000000 ) ) ;
#15 = EDGE_CURVE ( 'NONE', #280, #237, #128, .T. ) ;
#16 = PLANE ( 'NONE',  #29 ) ;
#17 = CC_DESIGN_APPROVAL ( #226, ( #21 ) ) ;
#18 = AXIS2_PLACEMENT_3D ( 'NONE', #57, #147, #95 ) ;
#19 = CALENDAR_DATE ( 2022, 7, 7 ) ;
#20 = PRODUCT ( 'c77f', 'c77f', '', ( #276 ) ) ;
#21 = PRODUCT_DEFINITION ( 'NEZNÁMÝ', '', #92, #196 ) ;
#22 =( NAMED_UNIT ( * ) PLANE_ANGLE_UNIT ( ) SI_UNIT ( $, .RADIAN. ) );
#23 = ORIENTED_EDGE ( 'NONE', *, *, #62, .T. ) ;
#24 = ORIENTED_EDGE ( 'NONE', *, *, #143, .F. ) ;
#25 = DIRECTION ( 'NONE',  ( 1.000000000000000000, 0.000000000000000000, 0.000000000000000000 ) ) ;
#26 = CYLINDRICAL_SURFACE ( 'NONE', #75, 6.000000000000000888 ) ;
#27 = DIRECTION ( 'NONE',  ( 1.000000000000000000, 0.000000000000000000, -0.000000000000000000 ) ) ;
#28 = VERTEX_POINT ( 'NONE', #187 ) ;
#29 = AXIS2_PLACEMENT_3D ( 'NONE', #100, #245, #191 ) ;
#30 = CARTESIAN_POINT ( 'NONE',  ( 0.000000000000000000, 0.000000000000000000, 0.000000000000000000 ) ) ;
#31 = DIRECTION ( 'NONE',  ( -0.000000000000000000, -0.000000000000000000, -1.000000000000000000 ) ) ;
#32 = DIRECTION ( 'NONE',  ( 0.000000000000000000, 0.000000000000000000, 1.000000000000000000 ) ) ;
#33 = DIRECTION ( 'NONE',  ( 1.000000000000000000, 0.000000000000000000, 0.000000000000000000 ) ) ;
#34 = UNCERTAINTY_MEASURE_WITH_UNIT (LENGTH_MEASURE( 1.000000000000000082E-05 ), #176, 'distance_accuracy_value', 'NONE');
#35 = PERSON_AND_ORGANIZATION ( #246, #5 ) ;
#36 = VERTEX_POINT ( 'NONE', #67 ) ;
#37 = AXIS2_PLACEMENT_3D ( 'NONE', #110, #186, #282 ) ;
#38 = ADVANCED_BREP_SHAPE_REPRESENTATION ( 'c77f', ( #236, #260 ), #66 ) ;
#39 = COORDINATED_UNIVERSAL_TIME_OFFSET ( 1, 0, .AHEAD. ) ;
#40 =( NAMED_UNIT ( * ) SI_UNIT ( $, .STERADIAN. ) SOLID_ANGLE_UNIT ( ) );
#41 = ADVANCED_FACE ( 'NONE', ( #257 ), #26, .T. ) ;
#42 = PERSON_AND_ORGANIZATION_ROLE ( 'creator' ) ;
#43 = ORIENTED_EDGE ( 'NONE', *, *, #127, .F. ) ;
#44 = SECURITY_CLASSIFICATION ( '', '', #303 ) ;
#45 = ORIENTED_EDGE ( 'NONE', *, *, #143, .T. ) ;
#46 = ORIENTED_EDGE ( 'NONE', *, *, #193, .F. ) ;
#47 = CARTESIAN_POINT ( 'NONE',  ( -3.250000000000000444, 0.000000000000000000, 320.0000000000000000 ) ) ;
#48 = ORIENTED_EDGE ( 'NONE', *, *, #148, .F. ) ;
#49 = ORIENTED_EDGE ( 'NONE', *, *, #185, .T. ) ;
#50 = FACE_OUTER_BOUND ( 'NONE', #229, .T. ) ;
#51 = LINE ( 'NONE', #124, #195 ) ;
#52 = EDGE_CURVE ( 'NONE', #36, #248, #284, .T. ) ;
#53 = CARTESIAN_POINT ( 'NONE',  ( -3.450000000000000178, 4.225031457058368824E-16, 4.999999999999991118 ) ) ;
#54 = DIRECTION ( 'NONE',  ( 0.000000000000000000, 0.000000000000000000, 1.000000000000000000 ) ) ;
#55 = CARTESIAN_POINT ( 'NONE',  ( 3.250000000000000444, 3.980102097228898231E-16, 5.199999999999982414 ) ) ;
#56 = AXIS2_PLACEMENT_3D ( 'NONE', #72, #7, #167 ) ;
#57 = CARTESIAN_POINT ( 'NONE',  ( 0.000000000000000000, 0.000000000000000000, 320.0000000000000000 ) ) ;
#58 = PRODUCT_DEFINITION_SHAPE ( 'NONE', 'NONE',  #21 ) ;
#59 = DIRECTION ( 'NONE',  ( -1.000000000000000000, 0.000000000000000000, 0.000000000000000000 ) ) ;
#60 = ORIENTED_EDGE ( 'NONE', *, *, #193, .T. ) ;
#61 = AXIS2_PLACEMENT_3D ( 'NONE', #68, #140, #27 ) ;
#62 = EDGE_CURVE ( 'NONE', #299, #131, #189, .T. ) ;
#63 = PERSON_AND_ORGANIZATION_ROLE ( 'creator' ) ;
#64 = ORIENTED_EDGE ( 'NONE', *, *, #302, .T. ) ;
#65 = EDGE_LOOP ( 'NONE', ( #105, #285, #60, #166 ) ) ;
#66 =( GEOMETRIC_REPRESENTATION_CONTEXT ( 3 ) GLOBAL_UNCERTAINTY_ASSIGNED_CONTEXT ( ( #34 ) ) GLOBAL_UNIT_ASSIGNED_CONTEXT ( ( #176, #22, #40 ) ) REPRESENTATION_CONTEXT ( 'NONE', 'WORKASPACE' ) );
#67 = CARTESIAN_POINT ( 'NONE',  ( -3.250000000000000444, 0.000000000000000000, 320.0000000000000000 ) ) ;
#68 = CARTESIAN_POINT ( 'NONE',  ( 0.000000000000000000, 0.000000000000000000, 5.000000000000000000 ) ) ;
#69 = AXIS2_PLACEMENT_3D ( 'NONE', #266, #32, #290 ) ;
#70 = ADVANCED_FACE ( 'NONE', ( #4 ), #286, .T. ) ;
#71 = EDGE_LOOP ( 'NONE', ( #136, #49 ) ) ;
#72 = CARTESIAN_POINT ( 'NONE',  ( 0.000000000000000000, 0.000000000000000000, 320.0000000000000000 ) ) ;
#73 = FACE_OUTER_BOUND ( 'NONE', #297, .T. ) ;
#74 = ADVANCED_FACE ( 'NONE', ( #259 ), #91, .T. ) ;
#75 = AXIS2_PLACEMENT_3D ( 'NONE', #115, #262, #190 ) ;
#76 = CIRCLE ( 'NONE', #133, 6.000000000000000888 ) ;
#77 = DIRECTION ( 'NONE',  ( 1.000000000000000000, 0.000000000000000000, 0.000000000000000000 ) ) ;
#78 = DIRECTION ( 'NONE',  ( 0.000000000000000000, -1.000000000000000000, 0.000000000000000000 ) ) ;
#79 = CARTESIAN_POINT ( 'NONE',  ( -3.450000000000000178, 4.225031457058368824E-16, 5.199999999999982414 ) ) ;
#80 = DIRECTION ( 'NONE',  ( 0.000000000000000000, 0.000000000000000000, 1.000000000000000000 ) ) ;
#81 = CC_DESIGN_PERSON_AND_ORGANIZATION_ASSIGNMENT ( #177, #272, ( #44 ) ) ;
#82 = DATE_AND_TIME ( #156, #204 ) ;
#83 = COORDINATED_UNIVERSAL_TIME_OFFSET ( 1, 0, .AHEAD. ) ;
#84 = CC_DESIGN_PERSON_AND_ORGANIZATION_ASSIGNMENT ( #252, #205, ( #92 ) ) ;
#85 = CIRCLE ( 'NONE', #234, 3.450000000000000178 ) ;
#86 = CALENDAR_DATE ( 2022, 7, 7 ) ;
#87 = COORDINATED_UNIVERSAL_TIME_OFFSET ( 1, 0, .AHEAD. ) ;
#88 = SHAPE_DEFINITION_REPRESENTATION ( #58, #38 ) ;
#89 = ORIENTED_EDGE ( 'NONE', *, *, #207, .F. ) ;
#90 = EDGE_LOOP ( 'NONE', ( #158, #46, #256, #210 ) ) ;
#91 = CYLINDRICAL_SURFACE ( 'NONE', #56, 3.250000000000000444 ) ;
#92 = PRODUCT_DEFINITION_FORMATION_WITH_SPECIFIED_SOURCE ( 'LIBOVOLNÝ', '', #20, .NOT_KNOWN. ) ;
#93 = ORIENTED_EDGE ( 'NONE', *, *, #269, .F. ) ;
#94 = CARTESIAN_POINT ( 'NONE',  ( 6.000000000000000888, 7.347880794884120722E-16, 0.000000000000000000 ) ) ;
#95 = DIRECTION ( 'NONE',  ( 1.000000000000000000, 0.000000000000000000, 0.000000000000000000 ) ) ;
#96 = CC_DESIGN_SECURITY_CLASSIFICATION ( #44, ( #92 ) ) ;
#97 = DIRECTION ( 'NONE',  ( 0.000000000000000000, 0.000000000000000000, 1.000000000000000000 ) ) ;
#98 = FACE_OUTER_BOUND ( 'NONE', #235, .T. ) ;
#99 = ADVANCED_FACE ( 'NONE', ( #50 ), #142, .F. ) ;
#100 = CARTESIAN_POINT ( 'NONE',  ( 0.000000000000000000, 0.000000000000000000, 320.0000000000000000 ) ) ;
#101 = APPROVAL_STATUS ( 'not_yet_approved' ) ;
#102 = DIRECTION ( 'NONE',  ( 1.000000000000000000, 0.000000000000000000, 0.000000000000000000 ) ) ;
#103 = CC_DESIGN_DATE_AND_TIME_ASSIGNMENT ( #279, #157, ( #44 ) ) ;
#104 = VERTEX_POINT ( 'NONE', #94 ) ;
#105 = ORIENTED_EDGE ( 'NONE', *, *, #185, .F. ) ;
#106 = PERSON_AND_ORGANIZATION ( #246, #5 ) ;
#107 = LOCAL_TIME ( 12, 9, 3.000000000000000000, #87 ) ;
#108 = APPROVAL_ROLE ( '' ) ;
#109 = ORIENTED_EDGE ( 'NONE', *, *, #62, .F. ) ;
#110 = CARTESIAN_POINT ( 'NONE',  ( 0.000000000000000000, 0.000000000000000000, 5.000000000000000000 ) ) ;
#111 = AXIS2_PLACEMENT_3D ( 'NONE', #9, #267, #171 ) ;
#112 = EDGE_LOOP ( 'NONE', ( #93, #89, #306, #45 ) ) ;
#113 = ADVANCED_FACE ( 'NONE', ( #281 ), #292, .F. ) ;
#114 = CARTESIAN_POINT ( 'NONE',  ( 0.000000000000000000, 0.000000000000000000, 320.0000000000000000 ) ) ;
#115 = CARTESIAN_POINT ( 'NONE',  ( 0.000000000000000000, 0.000000000000000000, 5.000000000000000000 ) ) ;
#116 = AXIS2_PLACEMENT_3D ( 'NONE', #114, #1, #164 ) ;
#117 = DIRECTION ( 'NONE',  ( 0.000000000000000000, 0.000000000000000000, 1.000000000000000000 ) ) ;
#118 = CARTESIAN_POINT ( 'NONE',  ( 6.000000000000000888, 7.347880794884120722E-16, 5.000000000000000000 ) ) ;
#119 = CARTESIAN_POINT ( 'NONE',  ( 0.000000000000000000, 0.000000000000000000, 5.199999999999982414 ) ) ;
#120 = CIRCLE ( 'NONE', #300, 6.000000000000000888 ) ;
#121 = LOCAL_TIME ( 12, 9, 3.000000000000000000, #153 ) ;
#122 = LINE ( 'NONE', #118, #180 ) ;
#123 = APPROVAL ( #251, 'NEURÈENÝ' ) ;
#124 = CARTESIAN_POINT ( 'NONE',  ( -6.000000000000000888, 0.000000000000000000, 5.000000000000000000 ) ) ;
#125 = APPLICATION_CONTEXT ( 'configuration controlled 3d designs of mechanical parts and assemblies' ) ;
#126 = CARTESIAN_POINT ( 'NONE',  ( 3.250000000000000444, 3.980102097228898231E-16, 320.0000000000000000 ) ) ;
#127 = EDGE_CURVE ( 'NONE', #163, #280, #138, .T. ) ;
#128 = CIRCLE ( 'NONE', #37, 3.450000000000000178 ) ;
#129 = APPROVAL_ROLE ( '' ) ;
#130 = PERSON_AND_ORGANIZATION ( #246, #5 ) ;
#131 = VERTEX_POINT ( 'NONE', #175 ) ;
#132 = ORIENTED_EDGE ( 'NONE', *, *, #273, .T. ) ;
#133 = AXIS2_PLACEMENT_3D ( 'NONE', #291, #80, #287 ) ;
#134 = APPLICATION_PROTOCOL_DEFINITION ( 'international standard', 'config_control_design', 1994, #125 ) ;
#135 = EDGE_LOOP ( 'NONE', ( #23, #64 ) ) ;
#136 = ORIENTED_EDGE ( 'NONE', *, *, #207, .T. ) ;
#137 = PLANE ( 'NONE',  #61 ) ;
#138 = CIRCLE ( 'NONE', #305, 0.1999999999999996503 ) ;
#139 = CIRCLE ( 'NONE', #11, 3.250000000000000444 ) ;
#140 = DIRECTION ( 'NONE',  ( 0.000000000000000000, 0.000000000000000000, 1.000000000000000000 ) ) ;
#141 = FACE_BOUND ( 'NONE', #224, .T. ) ;
#142 = PLANE ( 'NONE',  #194 ) ;
#143 = EDGE_CURVE ( 'NONE', #248, #163, #169, .T. ) ;
#144 = TOROIDAL_SURFACE ( 'NONE', #293, 3.450000000000000178, 0.2000000000000000111 ) ;
#145 = LINE ( 'NONE', #126, #270 ) ;
#146 = DIRECTION ( 'NONE',  ( -0.000000000000000000, -0.000000000000000000, -1.000000000000000000 ) ) ;
#147 = DIRECTION ( 'NONE',  ( 0.000000000000000000, 0.000000000000000000, 1.000000000000000000 ) ) ;
#148 = EDGE_CURVE ( 'NONE', #28, #104, #289, .T. ) ;
#149 = APPLICATION_CONTEXT ( 'configuration controlled 3d designs of mechanical parts and assemblies' ) ;
#150 = CARTESIAN_POINT ( 'NONE',  ( 3.250000000000000444, 3.980102097228898231E-16, 320.0000000000000000 ) ) ;
#151 = DIRECTION ( 'NONE',  ( 0.000000000000000000, 0.000000000000000000, 1.000000000000000000 ) ) ;
#152 = CC_DESIGN_PERSON_AND_ORGANIZATION_ASSIGNMENT ( #106, #294, ( #20 ) ) ;
#153 = COORDINATED_UNIVERSAL_TIME_OFFSET ( 1, 0, .AHEAD. ) ;
#154 = LOCAL_TIME ( 12, 9, 3.000000000000000000, #83 ) ;
#155 = PERSON_AND_ORGANIZATION ( #246, #5 ) ;
#156 = CALENDAR_DATE ( 2022, 7, 7 ) ;
#157 = DATE_TIME_ROLE ( 'classification_date' ) ;
#158 = ORIENTED_EDGE ( 'NONE', *, *, #273, .F. ) ;
#159 = AXIS2_PLACEMENT_3D ( 'NONE', #119, #13, #241 ) ;
#160 = AXIS2_PLACEMENT_3D ( 'NONE', #79, #173, #268 ) ;
#161 = CARTESIAN_POINT ( 'NONE',  ( 3.450000000000000178, 0.000000000000000000, 5.199999999999982414 ) ) ;
#162 = CC_DESIGN_PERSON_AND_ORGANIZATION_ASSIGNMENT ( #130, #42, ( #92 ) ) ;
#163 = VERTEX_POINT ( 'NONE', #55 ) ;
#164 = DIRECTION ( 'NONE',  ( -1.000000000000000000, 0.000000000000000000, 0.000000000000000000 ) ) ;
#165 = APPROVAL_PERSON_ORGANIZATION ( #230, #212, #129 ) ;
#166 = ORIENTED_EDGE ( 'NONE', *, *, #52, .F. ) ;
#167 = DIRECTION ( 'NONE',  ( -1.000000000000000000, 0.000000000000000000, 0.000000000000000000 ) ) ;
#168 = CYLINDRICAL_SURFACE ( 'NONE', #228, 6.000000000000000888 ) ;
#169 = CIRCLE ( 'NONE', #111, 3.250000000000000444 ) ;
#170 = CIRCLE ( 'NONE', #18, 3.250000000000000444 ) ;
#171 = DIRECTION ( 'NONE',  ( 1.000000000000000000, 0.000000000000000000, 0.000000000000000000 ) ) ;
#172 = CARTESIAN_POINT ( 'NONE',  ( 0.000000000000000000, 0.000000000000000000, 5.199999999999982414 ) ) ;
#173 = DIRECTION ( 'NONE',  ( 1.224646799147353207E-16, 1.000000000000000000, -0.000000000000000000 ) ) ;
#174 = APPROVAL_PERSON_ORGANIZATION ( #225, #123, #108 ) ;
#175 = CARTESIAN_POINT ( 'NONE',  ( 6.000000000000000888, 7.347880794884120722E-16, 5.000000000000000000 ) ) ;
#176 =( LENGTH_UNIT ( ) NAMED_UNIT ( * ) SI_UNIT ( .MILLI., .METRE. ) );
#177 = PERSON_AND_ORGANIZATION ( #246, #5 ) ;
#178 = ORIENTED_EDGE ( 'NONE', *, *, #15, .F. ) ;
#179 = APPROVAL_ROLE ( '' ) ;
#180 = VECTOR ( 'NONE', #146, 1000.000000000000000 ) ;
#181 = EDGE_CURVE ( 'NONE', #104, #28, #120, .T. ) ;
#182 = DATE_AND_TIME ( #277, #121 ) ;
#183 = CALENDAR_DATE ( 2022, 7, 7 ) ;
#184 = ORIENTED_EDGE ( 'NONE', *, *, #302, .F. ) ;
#185 = EDGE_CURVE ( 'NONE', #278, #36, #170, .T. ) ;
#186 = DIRECTION ( 'NONE',  ( -0.000000000000000000, -0.000000000000000000, -1.000000000000000000 ) ) ;
#187 = CARTESIAN_POINT ( 'NONE',  ( -6.000000000000000888, 0.000000000000000000, 0.000000000000000000 ) ) ;
#188 = ORIENTED_EDGE ( 'NONE', *, *, #283, .F. ) ;
#189 = CIRCLE ( 'NONE', #258, 6.000000000000000888 ) ;
#190 = DIRECTION ( 'NONE',  ( -1.000000000000000000, 0.000000000000000000, 0.000000000000000000 ) ) ;
#191 = DIRECTION ( 'NONE',  ( 1.000000000000000000, 0.000000000000000000, -0.000000000000000000 ) ) ;
#192 = DIRECTION ( 'NONE',  ( 0.000000000000000000, 0.000000000000000000, 1.000000000000000000 ) ) ;
#193 = EDGE_CURVE ( 'NONE', #163, #248, #139, .T. ) ;
#194 = AXIS2_PLACEMENT_3D ( 'NONE', #238, #117, #215 ) ;
#195 = VECTOR ( 'NONE', #222, 1000.000000000000000 ) ;
#196 = DESIGN_CONTEXT ( 'detailed design', #149, 'design' ) ;
#197 = CARTESIAN_POINT ( 'NONE',  ( -3.250000000000000444, 0.000000000000000000, 5.199999999999982414 ) ) ;
#198 = CARTESIAN_POINT ( 'NONE',  ( 0.000000000000000000, 0.000000000000000000, 5.199999999999982414 ) ) ;
#199 = CARTESIAN_POINT ( 'NONE',  ( -6.000000000000000888, 0.000000000000000000, 5.000000000000000000 ) ) ;
#200 = DATE_TIME_ROLE ( 'creation_date' ) ;
#201 = EDGE_LOOP ( 'NONE', ( #184, #232, #206, #188 ) ) ;
#202 = CARTESIAN_POINT ( 'NONE',  ( 0.000000000000000000, 0.000000000000000000, 0.000000000000000000 ) ) ;
#203 = ORIENTED_EDGE ( 'NONE', *, *, #283, .T. ) ;
#204 = LOCAL_TIME ( 12, 9, 3.000000000000000000, #39 ) ;
#205 = PERSON_AND_ORGANIZATION_ROLE ( 'design_supplier' ) ;
#206 = ORIENTED_EDGE ( 'NONE', *, *, #181, .T. ) ;
#207 = EDGE_CURVE ( 'NONE', #36, #278, #275, .T. ) ;
#208 = ORIENTED_EDGE ( 'NONE', *, *, #244, .F. ) ;
#209 = DATE_AND_TIME ( #19, #239 ) ;
#210 = ORIENTED_EDGE ( 'NONE', *, *, #240, .F. ) ;
#211 = ORIENTED_EDGE ( 'NONE', *, *, #15, .T. ) ;
#212 = APPROVAL ( #101, 'NEURÈENÝ' ) ;
#213 = DIRECTION ( 'NONE',  ( 0.000000000000000000, 0.000000000000000000, 1.000000000000000000 ) ) ;
#214 = CC_DESIGN_APPROVAL ( #212, ( #44 ) ) ;
#215 = DIRECTION ( 'NONE',  ( 1.000000000000000000, 0.000000000000000000, -0.000000000000000000 ) ) ;
#216 = CARTESIAN_POINT ( 'NONE',  ( 0.000000000000000000, 0.000000000000000000, 5.000000000000000000 ) ) ;
#217 = DIRECTION ( 'NONE',  ( 0.000000000000000000, 0.000000000000000000, -1.000000000000000000 ) ) ;
#218 = APPROVAL_PERSON_ORGANIZATION ( #155, #226, #179 ) ;
#219 = DIRECTION ( 'NONE',  ( 1.000000000000000000, 0.000000000000000000, 0.000000000000000000 ) ) ;
#220 = FACE_OUTER_BOUND ( 'NONE', #71, .T. ) ;
#221 = CC_DESIGN_DATE_AND_TIME_ASSIGNMENT ( #182, #200, ( #21 ) ) ;
#222 = DIRECTION ( 'NONE',  ( -0.000000000000000000, -0.000000000000000000, -1.000000000000000000 ) ) ;
#223 = COORDINATED_UNIVERSAL_TIME_OFFSET ( 1, 0, .AHEAD. ) ;
#224 = EDGE_LOOP ( 'NONE', ( #211, #254 ) ) ;
#225 = PERSON_AND_ORGANIZATION ( #246, #5 ) ;
#226 = APPROVAL ( #298, 'NEURÈENÝ' ) ;
#227 = APPROVAL_DATE_TIME ( #253, #226 ) ;
#228 = AXIS2_PLACEMENT_3D ( 'NONE', #216, #8, #59 ) ;
#229 = EDGE_LOOP ( 'NONE', ( #48, #304 ) ) ;
#230 = PERSON_AND_ORGANIZATION ( #246, #5 ) ;
#231 = ORIENTED_EDGE ( 'NONE', *, *, #148, .T. ) ;
#232 = ORIENTED_EDGE ( 'NONE', *, *, #244, .T. ) ;
#233 = DIRECTION ( 'NONE',  ( -0.000000000000000000, -0.000000000000000000, -1.000000000000000000 ) ) ;
#234 = AXIS2_PLACEMENT_3D ( 'NONE', #263, #31, #219 ) ;
#235 = EDGE_LOOP ( 'NONE', ( #24, #132, #178, #43 ) ) ;
#236 = MANIFOLD_SOLID_BREP ( 'Zaoblit1', #264 ) ;
#237 = VERTEX_POINT ( 'NONE', #53 ) ;
#238 = CARTESIAN_POINT ( 'NONE',  ( 0.000000000000000000, 0.000000000000000000, 0.000000000000000000 ) ) ;
#239 = LOCAL_TIME ( 12, 9, 3.000000000000000000, #223 ) ;
#240 = EDGE_CURVE ( 'NONE', #237, #280, #85, .T. ) ;
#241 = DIRECTION ( 'NONE',  ( 1.000000000000000000, 0.000000000000000000, 0.000000000000000000 ) ) ;
#242 = DIRECTION ( 'NONE',  ( -0.000000000000000000, -0.000000000000000000, -1.000000000000000000 ) ) ;
#243 = CARTESIAN_POINT ( 'NONE',  ( 3.450000000000000178, 0.000000000000000000, 4.999999999999991118 ) ) ;
#244 = EDGE_CURVE ( 'NONE', #131, #104, #122, .T. ) ;
#245 = DIRECTION ( 'NONE',  ( 0.000000000000000000, 0.000000000000000000, 1.000000000000000000 ) ) ;
#246 = PERSON ( 'NEURÈENÝ', 'NEURÈENÝ', 'NEURÈENÝ', ('NEURÈENÝ'), ('NEURÈENÝ'), ('NEURÈENÝ') ) ;
#247 = APPROVAL_DATE_TIME ( #82, #123 ) ;
#248 = VERTEX_POINT ( 'NONE', #197 ) ;
#249 = VECTOR ( 'NONE', #233, 1000.000000000000000 ) ;
#250 = ADVANCED_FACE ( 'NONE', ( #98 ), #144, .F. ) ;
#251 = APPROVAL_STATUS ( 'not_yet_approved' ) ;
#252 = PERSON_AND_ORGANIZATION ( #246, #5 ) ;
#253 = DATE_AND_TIME ( #86, #154 ) ;
#254 = ORIENTED_EDGE ( 'NONE', *, *, #240, .T. ) ;
#255 = CC_DESIGN_PERSON_AND_ORGANIZATION_ASSIGNMENT ( #35, #63, ( #21 ) ) ;
#256 = ORIENTED_EDGE ( 'NONE', *, *, #127, .T. ) ;
#257 = FACE_OUTER_BOUND ( 'NONE', #201, .T. ) ;
#258 = AXIS2_PLACEMENT_3D ( 'NONE', #2, #213, #25 ) ;
#259 = FACE_OUTER_BOUND ( 'NONE', #65, .T. ) ;
#260 = AXIS2_PLACEMENT_3D ( 'NONE', #202, #296, #102 ) ;
#261 = FACE_OUTER_BOUND ( 'NONE', #135, .T. ) ;
#262 = DIRECTION ( 'NONE',  ( -0.000000000000000000, -0.000000000000000000, -1.000000000000000000 ) ) ;
#263 = CARTESIAN_POINT ( 'NONE',  ( 0.000000000000000000, 0.000000000000000000, 5.000000000000000000 ) ) ;
#264 = CLOSED_SHELL ( 'NONE', ( #250, #74, #41, #307, #12, #99, #70, #295, #113 ) ) ;
#265 = CIRCLE ( 'NONE', #160, 0.2000000000000000944 ) ;
#266 = CARTESIAN_POINT ( 'NONE',  ( 0.000000000000000000, 0.000000000000000000, 320.0000000000000000 ) ) ;
#267 = DIRECTION ( 'NONE',  ( 0.000000000000000000, 0.000000000000000000, 1.000000000000000000 ) ) ;
#268 = DIRECTION ( 'NONE',  ( -1.000000000000000000, 1.224646799147350742E-16, 0.000000000000000000 ) ) ;
#269 = EDGE_CURVE ( 'NONE', #278, #163, #145, .T. ) ;
#270 = VECTOR ( 'NONE', #242, 1000.000000000000000 ) ;
#271 = CARTESIAN_POINT ( 'NONE',  ( 0.000000000000000000, 0.000000000000000000, 0.000000000000000000 ) ) ;
#272 = PERSON_AND_ORGANIZATION_ROLE ( 'classification_officer' ) ;
#273 = EDGE_CURVE ( 'NONE', #248, #237, #265, .T. ) ;
#274 = APPLICATION_PROTOCOL_DEFINITION ( 'international standard', 'config_control_design', 1994, #149 ) ;
#275 = CIRCLE ( 'NONE', #69, 3.250000000000000444 ) ;
#276 = MECHANICAL_CONTEXT ( 'NONE', #125, 'mechanical' ) ;
#277 = CALENDAR_DATE ( 2022, 7, 7 ) ;
#278 = VERTEX_POINT ( 'NONE', #150 ) ;
#279 = DATE_AND_TIME ( #183, #107 ) ;
#280 = VERTEX_POINT ( 'NONE', #243 ) ;
#281 = FACE_OUTER_BOUND ( 'NONE', #90, .T. ) ;
#282 = DIRECTION ( 'NONE',  ( 1.000000000000000000, 0.000000000000000000, 0.000000000000000000 ) ) ;
#283 = EDGE_CURVE ( 'NONE', #299, #28, #51, .T. ) ;
#284 = LINE ( 'NONE', #47, #249 ) ;
#285 = ORIENTED_EDGE ( 'NONE', *, *, #269, .T. ) ;
#286 = CYLINDRICAL_SURFACE ( 'NONE', #116, 3.250000000000000444 ) ;
#287 = DIRECTION ( 'NONE',  ( 1.000000000000000000, 0.000000000000000000, 0.000000000000000000 ) ) ;
#288 = DIRECTION ( 'NONE',  ( 1.000000000000000000, 0.000000000000000000, 0.000000000000000000 ) ) ;
#289 = CIRCLE ( 'NONE', #10, 6.000000000000000888 ) ;
#290 = DIRECTION ( 'NONE',  ( 1.000000000000000000, 0.000000000000000000, 0.000000000000000000 ) ) ;
#291 = CARTESIAN_POINT ( 'NONE',  ( 0.000000000000000000, 0.000000000000000000, 5.000000000000000000 ) ) ;
#292 = TOROIDAL_SURFACE ( 'NONE', #159, 3.450000000000000178, 0.2000000000000000111 ) ;
#293 = AXIS2_PLACEMENT_3D ( 'NONE', #172, #151, #33 ) ;
#294 = PERSON_AND_ORGANIZATION_ROLE ( 'design_owner' ) ;
#295 = ADVANCED_FACE ( 'NONE', ( #220 ), #16, .T. ) ;
#296 = DIRECTION ( 'NONE',  ( 0.000000000000000000, 0.000000000000000000, 1.000000000000000000 ) ) ;
#297 = EDGE_LOOP ( 'NONE', ( #208, #109, #203, #231 ) ) ;
#298 = APPROVAL_STATUS ( 'not_yet_approved' ) ;
#299 = VERTEX_POINT ( 'NONE', #199 ) ;
#300 = AXIS2_PLACEMENT_3D ( 'NONE', #30, #192, #77 ) ;
#301 = CC_DESIGN_APPROVAL ( #123, ( #92 ) ) ;
#302 = EDGE_CURVE ( 'NONE', #131, #299, #76, .T. ) ;
#303 = SECURITY_CLASSIFICATION_LEVEL ( 'unclassified' ) ;
#304 = ORIENTED_EDGE ( 'NONE', *, *, #181, .F. ) ;
#305 = AXIS2_PLACEMENT_3D ( 'NONE', #161, #78, #217 ) ;
#306 = ORIENTED_EDGE ( 'NONE', *, *, #52, .T. ) ;
#307 = ADVANCED_FACE ( 'NONE', ( #73 ), #168, .T. ) ;
ENDSEC;
END-ISO-10303-21;
