ISO-10303-21;
HEADER;
FILE_DESCRIPTION (( 'STEP AP203' ),
    '1' );
FILE_NAME ('c6a1.STEP',
    '2022-07-07T09:37:58',
    ( '' ),
    ( '' ),
    'SwSTEP 2.0',
    'SolidWorks 2019',
    '' );
FILE_SCHEMA (( 'CONFIG_CONTROL_DESIGN' ));
ENDSEC;

DATA;
#1 = COORDINATED_UNIVERSAL_TIME_OFFSET ( 1, 0, .AHEAD. ) ;
#2 = CARTESIAN_POINT ( 'NONE',  ( 0.000000000000000000, 0.000000000000000000, 7.199999999999984190 ) ) ;
#3 = AXIS2_PLACEMENT_3D ( 'NONE', #155, #151, #106 ) ;
#4 = DIRECTION ( 'NONE',  ( 0.000000000000000000, 0.000000000000000000, 1.000000000000000000 ) ) ;
#5 = DIRECTION ( 'NONE',  ( 1.000000000000000000, 0.000000000000000000, 0.000000000000000000 ) ) ;
#6 = DIRECTION ( 'NONE',  ( 1.000000000000000000, 0.000000000000000000, 0.000000000000000000 ) ) ;
#7 = AXIS2_PLACEMENT_3D ( 'NONE', #149, #268, #225 ) ;
#8 = MANIFOLD_SOLID_BREP ( 'Zaoblit1', #227 ) ;
#9 = ADVANCED_FACE ( 'NONE', ( #238 ), #93, .F. ) ;
#10 = AXIS2_PLACEMENT_3D ( 'NONE', #146, #189, #120 ) ;
#11 = AXIS2_PLACEMENT_3D ( 'NONE', #267, #77, #135 ) ;
#12 = APPROVAL_ROLE ( '' ) ;
#13 = ORIENTED_EDGE ( 'NONE', *, *, #116, .T. ) ;
#14 = DIRECTION ( 'NONE',  ( -0.000000000000000000, -0.000000000000000000, -1.000000000000000000 ) ) ;
#15 = ORIENTED_EDGE ( 'NONE', *, *, #175, .F. ) ;
#16 = APPROVAL_PERSON_ORGANIZATION ( #102, #83, #216 ) ;
#17 = DATE_AND_TIME ( #20, #235 ) ;
#18 = AXIS2_PLACEMENT_3D ( 'NONE', #190, #161, #124 ) ;
#19 = ORIENTED_EDGE ( 'NONE', *, *, #26, .T. ) ;
#20 = CALENDAR_DATE ( 2022, 7, 7 ) ;
#21 = CC_DESIGN_PERSON_AND_ORGANIZATION_ASSIGNMENT ( #42, #92, ( #74 ) ) ;
#22 = VERTEX_POINT ( 'NONE', #168 ) ;
#23 = ORIENTED_EDGE ( 'NONE', *, *, #134, .F. ) ;
#24 = AXIS2_PLACEMENT_3D ( 'NONE', #82, #271, #273 ) ;
#25 = CARTESIAN_POINT ( 'NONE',  ( 0.000000000000000000, 0.000000000000000000, 0.000000000000000000 ) ) ;
#26 = EDGE_CURVE ( 'NONE', #50, #60, #95, .T. ) ;
#27 = PLANE ( 'NONE',  #85 ) ;
#28 = DIRECTION ( 'NONE',  ( -1.000000000000000000, 0.000000000000000000, 0.000000000000000000 ) ) ;
#29 = PERSON_AND_ORGANIZATION_ROLE ( 'classification_officer' ) ;
#30 = DIRECTION ( 'NONE',  ( -0.000000000000000000, -0.000000000000000000, -1.000000000000000000 ) ) ;
#31 = EDGE_CURVE ( 'NONE', #71, #228, #275, .T. ) ;
#32 = DIRECTION ( 'NONE',  ( 0.000000000000000000, 0.000000000000000000, 1.000000000000000000 ) ) ;
#33 = CARTESIAN_POINT ( 'NONE',  ( 0.000000000000000000, 0.000000000000000000, 7.000000000000000000 ) ) ;
#34 = PLANE ( 'NONE',  #24 ) ;
#35 = LOCAL_TIME ( 11, 37, 58.00000000000000000, #87 ) ;
#36 = ADVANCED_FACE ( 'NONE', ( #147 ), #257, .T. ) ;
#37 = CIRCLE ( 'NONE', #230, 11.00000000000000000 ) ;
#38 = CIRCLE ( 'NONE', #270, 8.200000000000001066 ) ;
#39 = MECHANICAL_CONTEXT ( 'NONE', #99, 'mechanical' ) ;
#40 = ORIENTED_EDGE ( 'NONE', *, *, #253, .F. ) ;
#41 = CARTESIAN_POINT ( 'NONE',  ( 11.00000000000000000, 1.347111479062088405E-15, 7.000000000000000000 ) ) ;
#42 = PERSON_AND_ORGANIZATION ( #226, #263 ) ;
#43 = ORIENTED_EDGE ( 'NONE', *, *, #284, .T. ) ;
#44 = PRODUCT_DEFINITION ( 'NEZNÁMÝ', '', #74, #261 ) ;
#45 = FACE_BOUND ( 'NONE', #129, .T. ) ;
#46 = AXIS2_PLACEMENT_3D ( 'NONE', #133, #54, #264 ) ;
#47 = ORIENTED_EDGE ( 'NONE', *, *, #253, .T. ) ;
#48 = ORIENTED_EDGE ( 'NONE', *, *, #112, .T. ) ;
#49 = UNCERTAINTY_MEASURE_WITH_UNIT (LENGTH_MEASURE( 1.000000000000000082E-05 ), #68, 'distance_accuracy_value', 'NONE');
#50 = VERTEX_POINT ( 'NONE', #282 ) ;
#51 = SHAPE_DEFINITION_REPRESENTATION ( #286, #157 ) ;
#52 = PRODUCT ( 'c6a1', 'c6a1', '', ( #39 ) ) ;
#53 = CC_DESIGN_PERSON_AND_ORGANIZATION_ASSIGNMENT ( #167, #256, ( #74 ) ) ;
#54 = DIRECTION ( 'NONE',  ( 0.000000000000000000, 0.000000000000000000, 1.000000000000000000 ) ) ;
#55 = DIRECTION ( 'NONE',  ( 0.000000000000000000, 0.000000000000000000, 1.000000000000000000 ) ) ;
#56 = DIRECTION ( 'NONE',  ( 1.000000000000000000, 0.000000000000000000, 0.000000000000000000 ) ) ;
#57 = AXIS2_PLACEMENT_3D ( 'NONE', #178, #4, #223 ) ;
#58 = DIRECTION ( 'NONE',  ( 0.000000000000000000, 0.000000000000000000, 1.000000000000000000 ) ) ;
#59 = FACE_OUTER_BOUND ( 'NONE', #63, .T. ) ;
#60 = VERTEX_POINT ( 'NONE', #72 ) ;
#61 = APPROVAL_PERSON_ORGANIZATION ( #237, #243, #12 ) ;
#62 = CARTESIAN_POINT ( 'NONE',  ( 0.000000000000000000, 0.000000000000000000, 7.000000000000000000 ) ) ;
#63 = EDGE_LOOP ( 'NONE', ( #123, #69, #43, #215 ) ) ;
#64 = CC_DESIGN_PERSON_AND_ORGANIZATION_ASSIGNMENT ( #152, #29, ( #280 ) ) ;
#65 = APPROVAL_STATUS ( 'not_yet_approved' ) ;
#66 = FACE_OUTER_BOUND ( 'NONE', #259, .T. ) ;
#67 = ORIENTED_EDGE ( 'NONE', *, *, #150, .T. ) ;
#68 =( LENGTH_UNIT ( ) NAMED_UNIT ( * ) SI_UNIT ( .MILLI., .METRE. ) );
#69 = ORIENTED_EDGE ( 'NONE', *, *, #160, .F. ) ;
#70 = SECURITY_CLASSIFICATION_LEVEL ( 'unclassified' ) ;
#71 = VERTEX_POINT ( 'NONE', #173 ) ;
#72 = CARTESIAN_POINT ( 'NONE',  ( 11.00000000000000000, 1.347111479062088405E-15, 0.000000000000000000 ) ) ;
#73 = DIRECTION ( 'NONE',  ( 1.000000000000000000, 0.000000000000000000, 0.000000000000000000 ) ) ;
#74 = PRODUCT_DEFINITION_FORMATION_WITH_SPECIFIED_SOURCE ( 'LIBOVOLNÝ', '', #52, .NOT_KNOWN. ) ;
#75 = AXIS2_PLACEMENT_3D ( 'NONE', #127, #217, #303 ) ;
#76 = DIRECTION ( 'NONE',  ( -0.000000000000000000, -0.000000000000000000, -1.000000000000000000 ) ) ;
#77 = DIRECTION ( 'NONE',  ( 0.000000000000000000, -1.000000000000000000, 0.000000000000000000 ) ) ;
#78 = APPROVAL ( #65, 'NEURÈENÝ' ) ;
#79 = CARTESIAN_POINT ( 'NONE',  ( -11.00000000000000000, 0.000000000000000000, 7.000000000000000000 ) ) ;
#80 = CARTESIAN_POINT ( 'NONE',  ( 0.000000000000000000, 0.000000000000000000, 7.000000000000000000 ) ) ;
#81 = ADVANCED_FACE ( 'NONE', ( #148 ), #298, .F. ) ;
#82 = CARTESIAN_POINT ( 'NONE',  ( 0.000000000000000000, 0.000000000000000000, 7.000000000000000000 ) ) ;
#83 = APPROVAL ( #174, 'NEURÈENÝ' ) ;
#84 = ORIENTED_EDGE ( 'NONE', *, *, #112, .F. ) ;
#85 = AXIS2_PLACEMENT_3D ( 'NONE', #180, #202, #105 ) ;
#86 =( NAMED_UNIT ( * ) SI_UNIT ( $, .STERADIAN. ) SOLID_ANGLE_UNIT ( ) );
#87 = COORDINATED_UNIVERSAL_TIME_OFFSET ( 1, 0, .AHEAD. ) ;
#88 =( GEOMETRIC_REPRESENTATION_CONTEXT ( 3 ) GLOBAL_UNCERTAINTY_ASSIGNED_CONTEXT ( ( #49 ) ) GLOBAL_UNIT_ASSIGNED_CONTEXT ( ( #68, #232, #86 ) ) REPRESENTATION_CONTEXT ( 'NONE', 'WORKASPACE' ) );
#89 = APPLICATION_PROTOCOL_DEFINITION ( 'international standard', 'config_control_design', 1994, #99 ) ;
#90 = EDGE_CURVE ( 'NONE', #22, #60, #37, .T. ) ;
#91 = DIRECTION ( 'NONE',  ( -1.000000000000000000, 1.224646799147353207E-16, 0.000000000000000000 ) ) ;
#92 = PERSON_AND_ORGANIZATION_ROLE ( 'creator' ) ;
#93 = TOROIDAL_SURFACE ( 'NONE', #10, 8.200000000000001066, 0.2000000000000000111 ) ;
#94 = ORIENTED_EDGE ( 'NONE', *, *, #103, .T. ) ;
#95 = LINE ( 'NONE', #41, #154 ) ;
#96 = AXIS2_PLACEMENT_3D ( 'NONE', #198, #283, #164 ) ;
#97 = ORIENTED_EDGE ( 'NONE', *, *, #26, .F. ) ;
#98 = VERTEX_POINT ( 'NONE', #199 ) ;
#99 = APPLICATION_CONTEXT ( 'configuration controlled 3d designs of mechanical parts and assemblies' ) ;
#100 = DATE_AND_TIME ( #306, #200 ) ;
#101 = DIRECTION ( 'NONE',  ( 0.000000000000000000, 0.000000000000000000, 1.000000000000000000 ) ) ;
#102 = PERSON_AND_ORGANIZATION ( #226, #263 ) ;
#103 = EDGE_CURVE ( 'NONE', #60, #22, #207, .T. ) ;
#104 = CC_DESIGN_APPROVAL ( #243, ( #44 ) ) ;
#105 = DIRECTION ( 'NONE',  ( 1.000000000000000000, 0.000000000000000000, -0.000000000000000000 ) ) ;
#106 = DIRECTION ( 'NONE',  ( -1.000000000000000000, 0.000000000000000000, 0.000000000000000000 ) ) ;
#107 = CARTESIAN_POINT ( 'NONE',  ( -11.00000000000000000, 0.000000000000000000, 7.000000000000000000 ) ) ;
#108 = ADVANCED_FACE ( 'NONE', ( #59 ), #153, .T. ) ;
#109 = CIRCLE ( 'NONE', #7, 8.000000000000000000 ) ;
#110 = DIRECTION ( 'NONE',  ( -0.000000000000000000, -0.000000000000000000, -1.000000000000000000 ) ) ;
#111 = ORIENTED_EDGE ( 'NONE', *, *, #265, .T. ) ;
#112 = EDGE_CURVE ( 'NONE', #214, #22, #179, .T. ) ;
#113 = VECTOR ( 'NONE', #262, 1000.000000000000000 ) ;
#114 = PERSON_AND_ORGANIZATION ( #226, #263 ) ;
#115 = EDGE_LOOP ( 'NONE', ( #251, #67, #47, #272 ) ) ;
#116 = EDGE_CURVE ( 'NONE', #125, #98, #249, .T. ) ;
#117 = APPROVAL_STATUS ( 'not_yet_approved' ) ;
#118 = APPLICATION_CONTEXT ( 'configuration controlled 3d designs of mechanical parts and assemblies' ) ;
#119 = APPROVAL_PERSON_ORGANIZATION ( #122, #78, #213 ) ;
#120 = DIRECTION ( 'NONE',  ( 1.000000000000000000, 0.000000000000000000, 0.000000000000000000 ) ) ;
#121 = CIRCLE ( 'NONE', #11, 0.1999999999999996503 ) ;
#122 = PERSON_AND_ORGANIZATION ( #226, #263 ) ;
#123 = ORIENTED_EDGE ( 'NONE', *, *, #150, .F. ) ;
#124 = DIRECTION ( 'NONE',  ( 1.000000000000000000, 0.000000000000000000, 0.000000000000000000 ) ) ;
#125 = VERTEX_POINT ( 'NONE', #222 ) ;
#126 = ADVANCED_FACE ( 'NONE', ( #307 ), #27, .F. ) ;
#127 = CARTESIAN_POINT ( 'NONE',  ( 0.000000000000000000, 0.000000000000000000, 637.0000000000000000 ) ) ;
#128 = VECTOR ( 'NONE', #76, 1000.000000000000000 ) ;
#129 = EDGE_LOOP ( 'NONE', ( #296, #279 ) ) ;
#130 = CARTESIAN_POINT ( 'NONE',  ( 0.000000000000000000, 0.000000000000000000, 7.000000000000000000 ) ) ;
#131 = DIRECTION ( 'NONE',  ( -0.000000000000000000, -0.000000000000000000, -1.000000000000000000 ) ) ;
#132 = AXIS2_PLACEMENT_3D ( 'NONE', #33, #32, #73 ) ;
#133 = CARTESIAN_POINT ( 'NONE',  ( 0.000000000000000000, 0.000000000000000000, 637.0000000000000000 ) ) ;
#134 = EDGE_CURVE ( 'NONE', #228, #304, #38, .T. ) ;
#135 = DIRECTION ( 'NONE',  ( 0.000000000000000000, 0.000000000000000000, -1.000000000000000000 ) ) ;
#136 = CARTESIAN_POINT ( 'NONE',  ( -8.000000000000000000, 0.000000000000000000, 637.0000000000000000 ) ) ;
#137 = PERSON_AND_ORGANIZATION_ROLE ( 'design_owner' ) ;
#138 = CC_DESIGN_DATE_AND_TIME_ASSIGNMENT ( #292, #208, ( #44 ) ) ;
#139 = CC_DESIGN_APPROVAL ( #78, ( #74 ) ) ;
#140 = CIRCLE ( 'NONE', #132, 11.00000000000000000 ) ;
#141 = COORDINATED_UNIVERSAL_TIME_OFFSET ( 1, 0, .AHEAD. ) ;
#142 = EDGE_CURVE ( 'NONE', #214, #50, #140, .T. ) ;
#143 = FACE_OUTER_BOUND ( 'NONE', #231, .T. ) ;
#144 = CARTESIAN_POINT ( 'NONE',  ( -8.200000000000001066, 1.004210375300829674E-15, 7.199999999999984190 ) ) ;
#145 = VERTEX_POINT ( 'NONE', #221 ) ;
#146 = CARTESIAN_POINT ( 'NONE',  ( 0.000000000000000000, 0.000000000000000000, 7.199999999999984190 ) ) ;
#147 = FACE_OUTER_BOUND ( 'NONE', #219, .T. ) ;
#148 = FACE_OUTER_BOUND ( 'NONE', #196, .T. ) ;
#149 = CARTESIAN_POINT ( 'NONE',  ( 0.000000000000000000, 0.000000000000000000, 637.0000000000000000 ) ) ;
#150 = EDGE_CURVE ( 'NONE', #125, #145, #203, .T. ) ;
#151 = DIRECTION ( 'NONE',  ( -0.000000000000000000, -0.000000000000000000, -1.000000000000000000 ) ) ;
#152 = PERSON_AND_ORGANIZATION ( #226, #263 ) ;
#153 = CYLINDRICAL_SURFACE ( 'NONE', #3, 8.000000000000000000 ) ;
#154 = VECTOR ( 'NONE', #281, 1000.000000000000000 ) ;
#155 = CARTESIAN_POINT ( 'NONE',  ( 0.000000000000000000, 0.000000000000000000, 637.0000000000000000 ) ) ;
#156 = CYLINDRICAL_SURFACE ( 'NONE', #250, 8.000000000000000000 ) ;
#157 = ADVANCED_BREP_SHAPE_REPRESENTATION ( 'c6a1', ( #8, #18 ), #88 ) ;
#158 = LOCAL_TIME ( 11, 37, 58.00000000000000000, #295 ) ;
#159 = ORIENTED_EDGE ( 'NONE', *, *, #197, .F. ) ;
#160 = EDGE_CURVE ( 'NONE', #98, #125, #109, .T. ) ;
#161 = DIRECTION ( 'NONE',  ( 0.000000000000000000, 0.000000000000000000, 1.000000000000000000 ) ) ;
#162 = ORIENTED_EDGE ( 'NONE', *, *, #103, .F. ) ;
#163 = CALENDAR_DATE ( 2022, 7, 7 ) ;
#164 = DIRECTION ( 'NONE',  ( 1.000000000000000000, 0.000000000000000000, 0.000000000000000000 ) ) ;
#165 = CYLINDRICAL_SURFACE ( 'NONE', #187, 11.00000000000000000 ) ;
#166 = EDGE_LOOP ( 'NONE', ( #172, #162 ) ) ;
#167 = PERSON_AND_ORGANIZATION ( #226, #263 ) ;
#168 = CARTESIAN_POINT ( 'NONE',  ( -11.00000000000000000, 0.000000000000000000, 0.000000000000000000 ) ) ;
#169 = CIRCLE ( 'NONE', #302, 8.000000000000000000 ) ;
#170 = ADVANCED_FACE ( 'NONE', ( #244 ), #156, .T. ) ;
#171 = CALENDAR_DATE ( 2022, 7, 7 ) ;
#172 = ORIENTED_EDGE ( 'NONE', *, *, #90, .F. ) ;
#173 = CARTESIAN_POINT ( 'NONE',  ( -8.000000000000000000, 0.000000000000000000, 7.199999999999984190 ) ) ;
#174 = APPROVAL_STATUS ( 'not_yet_approved' ) ;
#175 = EDGE_CURVE ( 'NONE', #304, #228, #291, .T. ) ;
#176 = CARTESIAN_POINT ( 'NONE',  ( 0.000000000000000000, 0.000000000000000000, 0.000000000000000000 ) ) ;
#177 = AXIS2_PLACEMENT_3D ( 'NONE', #144, #192, #91 ) ;
#178 = CARTESIAN_POINT ( 'NONE',  ( 0.000000000000000000, 0.000000000000000000, 7.199999999999984190 ) ) ;
#179 = LINE ( 'NONE', #79, #128 ) ;
#180 = CARTESIAN_POINT ( 'NONE',  ( 0.000000000000000000, 0.000000000000000000, 0.000000000000000000 ) ) ;
#181 = CC_DESIGN_SECURITY_CLASSIFICATION ( #280, ( #74 ) ) ;
#182 = CIRCLE ( 'NONE', #218, 11.00000000000000000 ) ;
#183 = DIRECTION ( 'NONE',  ( -0.000000000000000000, -0.000000000000000000, -1.000000000000000000 ) ) ;
#184 = PRODUCT_RELATED_PRODUCT_CATEGORY ( 'detail', '', ( #52 ) ) ;
#185 = EDGE_CURVE ( 'NONE', #71, #145, #169, .T. ) ;
#186 = CALENDAR_DATE ( 2022, 7, 7 ) ;
#187 = AXIS2_PLACEMENT_3D ( 'NONE', #62, #14, #210 ) ;
#188 = DATE_AND_TIME ( #163, #158 ) ;
#189 = DIRECTION ( 'NONE',  ( 0.000000000000000000, 0.000000000000000000, 1.000000000000000000 ) ) ;
#190 = CARTESIAN_POINT ( 'NONE',  ( 0.000000000000000000, 0.000000000000000000, 0.000000000000000000 ) ) ;
#191 = CC_DESIGN_PERSON_AND_ORGANIZATION_ASSIGNMENT ( #114, #297, ( #44 ) ) ;
#192 = DIRECTION ( 'NONE',  ( 1.224646799147353207E-16, 1.000000000000000000, -0.000000000000000000 ) ) ;
#193 = LOCAL_TIME ( 11, 37, 58.00000000000000000, #1 ) ;
#194 = ORIENTED_EDGE ( 'NONE', *, *, #160, .T. ) ;
#195 = CIRCLE ( 'NONE', #57, 8.000000000000000000 ) ;
#196 = EDGE_LOOP ( 'NONE', ( #293, #258, #15, #159 ) ) ;
#197 = EDGE_CURVE ( 'NONE', #145, #304, #121, .T. ) ;
#198 = CARTESIAN_POINT ( 'NONE',  ( 0.000000000000000000, 0.000000000000000000, 7.199999999999984190 ) ) ;
#199 = CARTESIAN_POINT ( 'NONE',  ( -8.000000000000000000, 0.000000000000000000, 637.0000000000000000 ) ) ;
#200 = LOCAL_TIME ( 11, 37, 58.00000000000000000, #260 ) ;
#201 = APPROVAL_DATE_TIME ( #100, #83 ) ;
#202 = DIRECTION ( 'NONE',  ( 0.000000000000000000, 0.000000000000000000, 1.000000000000000000 ) ) ;
#203 = LINE ( 'NONE', #288, #113 ) ;
#204 = FACE_OUTER_BOUND ( 'NONE', #299, .T. ) ;
#205 = AXIS2_PLACEMENT_3D ( 'NONE', #80, #183, #269 ) ;
#206 = DIRECTION ( 'NONE',  ( 1.000000000000000000, 0.000000000000000000, 0.000000000000000000 ) ) ;
#207 = CIRCLE ( 'NONE', #245, 11.00000000000000000 ) ;
#208 = DATE_TIME_ROLE ( 'creation_date' ) ;
#209 = APPROVAL_DATE_TIME ( #17, #243 ) ;
#210 = DIRECTION ( 'NONE',  ( -1.000000000000000000, 0.000000000000000000, 0.000000000000000000 ) ) ;
#211 = VECTOR ( 'NONE', #252, 1000.000000000000000 ) ;
#212 = DIRECTION ( 'NONE',  ( 0.000000000000000000, 0.000000000000000000, 1.000000000000000000 ) ) ;
#213 = APPROVAL_ROLE ( '' ) ;
#214 = VERTEX_POINT ( 'NONE', #107 ) ;
#215 = ORIENTED_EDGE ( 'NONE', *, *, #185, .T. ) ;
#216 = APPROVAL_ROLE ( '' ) ;
#217 = DIRECTION ( 'NONE',  ( 0.000000000000000000, 0.000000000000000000, 1.000000000000000000 ) ) ;
#218 = AXIS2_PLACEMENT_3D ( 'NONE', #224, #58, #5 ) ;
#219 = EDGE_LOOP ( 'NONE', ( #194, #13 ) ) ;
#220 = DATE_TIME_ROLE ( 'classification_date' ) ;
#221 = CARTESIAN_POINT ( 'NONE',  ( 8.000000000000000000, 9.797174393178825657E-16, 7.199999999999984190 ) ) ;
#222 = CARTESIAN_POINT ( 'NONE',  ( 8.000000000000000000, 9.797174393178825657E-16, 637.0000000000000000 ) ) ;
#223 = DIRECTION ( 'NONE',  ( 1.000000000000000000, 0.000000000000000000, 0.000000000000000000 ) ) ;
#224 = CARTESIAN_POINT ( 'NONE',  ( 0.000000000000000000, 0.000000000000000000, 7.000000000000000000 ) ) ;
#225 = DIRECTION ( 'NONE',  ( 1.000000000000000000, 0.000000000000000000, 0.000000000000000000 ) ) ;
#226 = PERSON ( 'NEURÈENÝ', 'NEURÈENÝ', 'NEURÈENÝ', ('NEURÈENÝ'), ('NEURÈENÝ'), ('NEURÈENÝ') ) ;
#227 = CLOSED_SHELL ( 'NONE', ( #81, #170, #274, #305, #289, #126, #108, #36, #9 ) ) ;
#228 = VERTEX_POINT ( 'NONE', #285 ) ;
#229 = APPLICATION_PROTOCOL_DEFINITION ( 'international standard', 'config_control_design', 1994, #118 ) ;
#230 = AXIS2_PLACEMENT_3D ( 'NONE', #25, #212, #6 ) ;
#231 = EDGE_LOOP ( 'NONE', ( #97, #236, #48, #233 ) ) ;
#232 =( NAMED_UNIT ( * ) PLANE_ANGLE_UNIT ( ) SI_UNIT ( $, .RADIAN. ) );
#233 = ORIENTED_EDGE ( 'NONE', *, *, #90, .T. ) ;
#234 = CC_DESIGN_PERSON_AND_ORGANIZATION_ASSIGNMENT ( #248, #137, ( #52 ) ) ;
#235 = LOCAL_TIME ( 11, 37, 58.00000000000000000, #141 ) ;
#236 = ORIENTED_EDGE ( 'NONE', *, *, #142, .F. ) ;
#237 = PERSON_AND_ORGANIZATION ( #226, #263 ) ;
#238 = FACE_OUTER_BOUND ( 'NONE', #239, .T. ) ;
#239 = EDGE_LOOP ( 'NONE', ( #255, #40, #300, #23 ) ) ;
#240 = CC_DESIGN_DATE_AND_TIME_ASSIGNMENT ( #266, #220, ( #280 ) ) ;
#241 = CARTESIAN_POINT ( 'NONE',  ( 0.000000000000000000, 0.000000000000000000, 7.000000000000000000 ) ) ;
#242 = CARTESIAN_POINT ( 'NONE',  ( 0.000000000000000000, 0.000000000000000000, 637.0000000000000000 ) ) ;
#243 = APPROVAL ( #117, 'NEURÈENÝ' ) ;
#244 = FACE_OUTER_BOUND ( 'NONE', #115, .T. ) ;
#245 = AXIS2_PLACEMENT_3D ( 'NONE', #176, #55, #56 ) ;
#246 = DIRECTION ( 'NONE',  ( 1.000000000000000000, 0.000000000000000000, 0.000000000000000000 ) ) ;
#247 = LINE ( 'NONE', #136, #211 ) ;
#248 = PERSON_AND_ORGANIZATION ( #226, #263 ) ;
#249 = CIRCLE ( 'NONE', #46, 8.000000000000000000 ) ;
#250 = AXIS2_PLACEMENT_3D ( 'NONE', #242, #30, #28 ) ;
#251 = ORIENTED_EDGE ( 'NONE', *, *, #116, .F. ) ;
#252 = DIRECTION ( 'NONE',  ( -0.000000000000000000, -0.000000000000000000, -1.000000000000000000 ) ) ;
#253 = EDGE_CURVE ( 'NONE', #145, #71, #195, .T. ) ;
#254 = ORIENTED_EDGE ( 'NONE', *, *, #265, .F. ) ;
#255 = ORIENTED_EDGE ( 'NONE', *, *, #31, .F. ) ;
#256 = PERSON_AND_ORGANIZATION_ROLE ( 'design_supplier' ) ;
#257 = PLANE ( 'NONE',  #75 ) ;
#258 = ORIENTED_EDGE ( 'NONE', *, *, #31, .T. ) ;
#259 = EDGE_LOOP ( 'NONE', ( #277, #111 ) ) ;
#260 = COORDINATED_UNIVERSAL_TIME_OFFSET ( 1, 0, .AHEAD. ) ;
#261 = DESIGN_CONTEXT ( 'detailed design', #118, 'design' ) ;
#262 = DIRECTION ( 'NONE',  ( -0.000000000000000000, -0.000000000000000000, -1.000000000000000000 ) ) ;
#263 = ORGANIZATION ( 'NEURÈENÝ', 'NEURÈENÝ', '' ) ;
#264 = DIRECTION ( 'NONE',  ( 1.000000000000000000, 0.000000000000000000, 0.000000000000000000 ) ) ;
#265 = EDGE_CURVE ( 'NONE', #50, #214, #182, .T. ) ;
#266 = DATE_AND_TIME ( #171, #193 ) ;
#267 = CARTESIAN_POINT ( 'NONE',  ( 8.200000000000001066, 0.000000000000000000, 7.199999999999984190 ) ) ;
#268 = DIRECTION ( 'NONE',  ( 0.000000000000000000, 0.000000000000000000, 1.000000000000000000 ) ) ;
#269 = DIRECTION ( 'NONE',  ( -1.000000000000000000, 0.000000000000000000, 0.000000000000000000 ) ) ;
#270 = AXIS2_PLACEMENT_3D ( 'NONE', #241, #110, #206 ) ;
#271 = DIRECTION ( 'NONE',  ( 0.000000000000000000, 0.000000000000000000, 1.000000000000000000 ) ) ;
#272 = ORIENTED_EDGE ( 'NONE', *, *, #284, .F. ) ;
#273 = DIRECTION ( 'NONE',  ( 1.000000000000000000, 0.000000000000000000, -0.000000000000000000 ) ) ;
#274 = ADVANCED_FACE ( 'NONE', ( #204 ), #290, .T. ) ;
#275 = CIRCLE ( 'NONE', #177, 0.2000000000000005107 ) ;
#276 = APPROVAL_DATE_TIME ( #188, #78 ) ;
#277 = ORIENTED_EDGE ( 'NONE', *, *, #142, .T. ) ;
#278 = CARTESIAN_POINT ( 'NONE',  ( 8.200000000000001066, 0.000000000000000000, 6.999999999999992006 ) ) ;
#279 = ORIENTED_EDGE ( 'NONE', *, *, #134, .T. ) ;
#280 = SECURITY_CLASSIFICATION ( '', '', #70 ) ;
#281 = DIRECTION ( 'NONE',  ( -0.000000000000000000, -0.000000000000000000, -1.000000000000000000 ) ) ;
#282 = CARTESIAN_POINT ( 'NONE',  ( 11.00000000000000000, 1.347111479062088405E-15, 7.000000000000000000 ) ) ;
#283 = DIRECTION ( 'NONE',  ( 0.000000000000000000, 0.000000000000000000, 1.000000000000000000 ) ) ;
#284 = EDGE_CURVE ( 'NONE', #98, #71, #247, .T. ) ;
#285 = CARTESIAN_POINT ( 'NONE',  ( -8.200000000000001066, 1.004210375300829674E-15, 6.999999999999992006 ) ) ;
#286 = PRODUCT_DEFINITION_SHAPE ( 'NONE', 'NONE',  #44 ) ;
#287 = DIRECTION ( 'NONE',  ( 1.000000000000000000, 0.000000000000000000, 0.000000000000000000 ) ) ;
#288 = CARTESIAN_POINT ( 'NONE',  ( 8.000000000000000000, 9.797174393178825657E-16, 637.0000000000000000 ) ) ;
#289 = ADVANCED_FACE ( 'NONE', ( #45, #66 ), #34, .T. ) ;
#290 = CYLINDRICAL_SURFACE ( 'NONE', #205, 11.00000000000000000 ) ;
#291 = CIRCLE ( 'NONE', #294, 8.200000000000001066 ) ;
#292 = DATE_AND_TIME ( #186, #35 ) ;
#293 = ORIENTED_EDGE ( 'NONE', *, *, #185, .F. ) ;
#294 = AXIS2_PLACEMENT_3D ( 'NONE', #130, #131, #287 ) ;
#295 = COORDINATED_UNIVERSAL_TIME_OFFSET ( 1, 0, .AHEAD. ) ;
#296 = ORIENTED_EDGE ( 'NONE', *, *, #175, .T. ) ;
#297 = PERSON_AND_ORGANIZATION_ROLE ( 'creator' ) ;
#298 = TOROIDAL_SURFACE ( 'NONE', #96, 8.200000000000001066, 0.2000000000000000111 ) ;
#299 = EDGE_LOOP ( 'NONE', ( #254, #19, #94, #84 ) ) ;
#300 = ORIENTED_EDGE ( 'NONE', *, *, #197, .T. ) ;
#301 = CC_DESIGN_APPROVAL ( #83, ( #280 ) ) ;
#302 = AXIS2_PLACEMENT_3D ( 'NONE', #2, #101, #246 ) ;
#303 = DIRECTION ( 'NONE',  ( 1.000000000000000000, 0.000000000000000000, -0.000000000000000000 ) ) ;
#304 = VERTEX_POINT ( 'NONE', #278 ) ;
#305 = ADVANCED_FACE ( 'NONE', ( #143 ), #165, .T. ) ;
#306 = CALENDAR_DATE ( 2022, 7, 7 ) ;
#307 = FACE_OUTER_BOUND ( 'NONE', #166, .T. ) ;
ENDSEC;
END-ISO-10303-21;
