ISO-10303-21;
HEADER;
FILE_DESCRIPTION (( 'STEP AP203' ),
    '1' );
FILE_NAME ('8720.STEP',
    '2022-07-07T10:16:51',
    ( '' ),
    ( '' ),
    'SwSTEP 2.0',
    'SolidWorks 2019',
    '' );
FILE_SCHEMA (( 'CONFIG_CONTROL_DESIGN' ));
ENDSEC;

DATA;
#1 = VERTEX_POINT ( 'NONE', #201 ) ;
#2 = ORIENTED_EDGE ( 'NONE', *, *, #32, .T. ) ;
#3 = PRODUCT_RELATED_PRODUCT_CATEGORY ( 'detail', '', ( #164 ) ) ;
#4 = DIRECTION ( 'NONE',  ( -0.000000000000000000, -0.000000000000000000, -1.000000000000000000 ) ) ;
#5 = CC_DESIGN_APPROVAL ( #286, ( #173 ) ) ;
#6 = DIRECTION ( 'NONE',  ( 0.000000000000000000, -1.000000000000000000, 0.000000000000000000 ) ) ;
#7 = CYLINDRICAL_SURFACE ( 'NONE', #255, 5.000000000000000000 ) ;
#8 = APPROVAL ( #270, 'NEURÈENÝ' ) ;
#9 = COORDINATED_UNIVERSAL_TIME_OFFSET ( 1, 0, .AHEAD. ) ;
#10 = DESIGN_CONTEXT ( 'detailed design', #133, 'design' ) ;
#11 = LINE ( 'NONE', #207, #151 ) ;
#12 = DIRECTION ( 'NONE',  ( 1.000000000000000000, 0.000000000000000000, 0.000000000000000000 ) ) ;
#13 = LOCAL_TIME ( 12, 16, 51.00000000000000000, #62 ) ;
#14 = FACE_OUTER_BOUND ( 'NONE', #45, .T. ) ;
#15 = CARTESIAN_POINT ( 'NONE',  ( -2.600000000000000089, 0.000000000000000000, 3.199999999999980638 ) ) ;
#16 = APPROVAL_ROLE ( '' ) ;
#17 =( LENGTH_UNIT ( ) NAMED_UNIT ( * ) SI_UNIT ( .MILLI., .METRE. ) );
#18 = PERSON_AND_ORGANIZATION ( #53, #109 ) ;
#19 = AXIS2_PLACEMENT_3D ( 'NONE', #37, #183, #138 ) ;
#20 = ORIENTED_EDGE ( 'NONE', *, *, #51, .F. ) ;
#21 = CARTESIAN_POINT ( 'NONE',  ( 0.000000000000000000, 0.000000000000000000, 0.000000000000000000 ) ) ;
#22 = DIRECTION ( 'NONE',  ( 0.000000000000000000, 0.000000000000000000, 1.000000000000000000 ) ) ;
#23 = CLOSED_SHELL ( 'NONE', ( #251, #257, #116, #200, #304, #95, #131, #105, #119 ) ) ;
#24 = CC_DESIGN_APPROVAL ( #8, ( #167 ) ) ;
#25 = CARTESIAN_POINT ( 'NONE',  ( 2.600000000000000089, 3.184081677783118191E-16, 633.0000000000000000 ) ) ;
#26 = APPLICATION_CONTEXT ( 'configuration controlled 3d designs of mechanical parts and assemblies' ) ;
#27 = PRODUCT_DEFINITION_SHAPE ( 'NONE', 'NONE',  #99 ) ;
#28 = DIRECTION ( 'NONE',  ( -0.000000000000000000, -0.000000000000000000, -1.000000000000000000 ) ) ;
#29 = CC_DESIGN_PERSON_AND_ORGANIZATION_ASSIGNMENT ( #185, #253, ( #173 ) ) ;
#30 = CARTESIAN_POINT ( 'NONE',  ( 0.000000000000000000, 0.000000000000000000, 3.000000000000000000 ) ) ;
#31 = FACE_OUTER_BOUND ( 'NONE', #237, .T. ) ;
#32 = EDGE_CURVE ( 'NONE', #63, #1, #35, .T. ) ;
#33 = FACE_BOUND ( 'NONE', #280, .T. ) ;
#34 = DIRECTION ( 'NONE',  ( 1.000000000000000000, 0.000000000000000000, 0.000000000000000000 ) ) ;
#35 = CIRCLE ( 'NONE', #87, 2.799999999999999822 ) ;
#36 = FACE_OUTER_BOUND ( 'NONE', #262, .T. ) ;
#37 = CARTESIAN_POINT ( 'NONE',  ( 0.000000000000000000, 0.000000000000000000, 3.000000000000000000 ) ) ;
#38 = CC_DESIGN_PERSON_AND_ORGANIZATION_ASSIGNMENT ( #156, #247, ( #164 ) ) ;
#39 = DATE_AND_TIME ( #208, #13 ) ;
#40 = ORIENTED_EDGE ( 'NONE', *, *, #271, .T. ) ;
#41 = CIRCLE ( 'NONE', #202, 2.600000000000000089 ) ;
#42 = VERTEX_POINT ( 'NONE', #25 ) ;
#43 = CIRCLE ( 'NONE', #197, 2.600000000000000089 ) ;
#44 = PLANE ( 'NONE',  #120 ) ;
#45 = EDGE_LOOP ( 'NONE', ( #154, #20, #199, #239 ) ) ;
#46 = VECTOR ( 'NONE', #4, 1000.000000000000000 ) ;
#47 = APPROVAL_PERSON_ORGANIZATION ( #18, #8, #118 ) ;
#48 = CARTESIAN_POINT ( 'NONE',  ( -2.799999999999999822, 3.429011037612589276E-16, 2.999999999999990674 ) ) ;
#49 = ORIENTED_EDGE ( 'NONE', *, *, #94, .T. ) ;
#50 = DIRECTION ( 'NONE',  ( 1.000000000000000000, 0.000000000000000000, 0.000000000000000000 ) ) ;
#51 = EDGE_CURVE ( 'NONE', #101, #283, #195, .T. ) ;
#52 = CIRCLE ( 'NONE', #296, 5.000000000000000000 ) ;
#53 = PERSON ( 'NEURÈENÝ', 'NEURÈENÝ', 'NEURÈENÝ', ('NEURÈENÝ'), ('NEURÈENÝ'), ('NEURÈENÝ') ) ;
#54 = DIRECTION ( 'NONE',  ( -1.000000000000000000, 0.000000000000000000, 0.000000000000000000 ) ) ;
#55 = DIRECTION ( 'NONE',  ( 0.000000000000000000, 0.000000000000000000, 1.000000000000000000 ) ) ;
#56 = PERSON_AND_ORGANIZATION ( #53, #109 ) ;
#57 = DIRECTION ( 'NONE',  ( -0.000000000000000000, -0.000000000000000000, -1.000000000000000000 ) ) ;
#58 = CARTESIAN_POINT ( 'NONE',  ( 0.000000000000000000, 0.000000000000000000, 0.000000000000000000 ) ) ;
#59 = EDGE_CURVE ( 'NONE', #301, #150, #278, .T. ) ;
#60 = CALENDAR_DATE ( 2022, 7, 7 ) ;
#61 = DIRECTION ( 'NONE',  ( 1.000000000000000000, 0.000000000000000000, 0.000000000000000000 ) ) ;
#62 = COORDINATED_UNIVERSAL_TIME_OFFSET ( 1, 0, .AHEAD. ) ;
#63 = VERTEX_POINT ( 'NONE', #48 ) ;
#64 = EDGE_CURVE ( 'NONE', #283, #101, #52, .T. ) ;
#65 = AXIS2_PLACEMENT_3D ( 'NONE', #104, #245, #204 ) ;
#66 = ORIENTED_EDGE ( 'NONE', *, *, #74, .T. ) ;
#67 = EDGE_CURVE ( 'NONE', #1, #63, #212, .T. ) ;
#68 = ORIENTED_EDGE ( 'NONE', *, *, #112, .F. ) ;
#69 = APPROVAL ( #84, 'NEURÈENÝ' ) ;
#70 = LOCAL_TIME ( 12, 16, 51.00000000000000000, #298 ) ;
#71 = CARTESIAN_POINT ( 'NONE',  ( -2.600000000000000089, 0.000000000000000000, 633.0000000000000000 ) ) ;
#72 = ORIENTED_EDGE ( 'NONE', *, *, #106, .T. ) ;
#73 = CARTESIAN_POINT ( 'NONE',  ( 0.000000000000000000, 0.000000000000000000, 3.000000000000000000 ) ) ;
#74 = EDGE_CURVE ( 'NONE', #90, #220, #302, .T. ) ;
#75 = AXIS2_PLACEMENT_3D ( 'NONE', #288, #177, #54 ) ;
#76 = ORIENTED_EDGE ( 'NONE', *, *, #59, .T. ) ;
#77 = DIRECTION ( 'NONE',  ( 1.000000000000000000, 0.000000000000000000, 0.000000000000000000 ) ) ;
#78 = DIRECTION ( 'NONE',  ( 1.224646799147353207E-16, 1.000000000000000000, -0.000000000000000000 ) ) ;
#79 = EDGE_CURVE ( 'NONE', #42, #301, #221, .T. ) ;
#80 = CARTESIAN_POINT ( 'NONE',  ( 0.000000000000000000, 0.000000000000000000, 3.199999999999980638 ) ) ;
#81 = TOROIDAL_SURFACE ( 'NONE', #93, 2.799999999999999822, 0.2000000000000000111 ) ;
#82 = CARTESIAN_POINT ( 'NONE',  ( 0.000000000000000000, 0.000000000000000000, 0.000000000000000000 ) ) ;
#83 = DIRECTION ( 'NONE',  ( -1.000000000000000000, 0.000000000000000000, 0.000000000000000000 ) ) ;
#84 = APPROVAL_STATUS ( 'not_yet_approved' ) ;
#85 = FACE_OUTER_BOUND ( 'NONE', #277, .T. ) ;
#86 = DATE_AND_TIME ( #235, #178 ) ;
#87 = AXIS2_PLACEMENT_3D ( 'NONE', #73, #172, #175 ) ;
#88 = ADVANCED_BREP_SHAPE_REPRESENTATION ( '8720', ( #145, #306 ), #267 ) ;
#89 = DIRECTION ( 'NONE',  ( 0.000000000000000000, 0.000000000000000000, 1.000000000000000000 ) ) ;
#90 = VERTEX_POINT ( 'NONE', #260 ) ;
#91 = VECTOR ( 'NONE', #123, 1000.000000000000000 ) ;
#92 = ORIENTED_EDGE ( 'NONE', *, *, #64, .T. ) ;
#93 = AXIS2_PLACEMENT_3D ( 'NONE', #297, #224, #108 ) ;
#94 = EDGE_CURVE ( 'NONE', #100, #150, #103, .T. ) ;
#95 = ADVANCED_FACE ( 'NONE', ( #218 ), #176, .F. ) ;
#96 = ORIENTED_EDGE ( 'NONE', *, *, #106, .F. ) ;
#97 = VECTOR ( 'NONE', #157, 1000.000000000000000 ) ;
#98 = ORIENTED_EDGE ( 'NONE', *, *, #74, .F. ) ;
#99 = PRODUCT_DEFINITION ( 'NEZNÁMÝ', '', #167, #10 ) ;
#100 = VERTEX_POINT ( 'NONE', #71 ) ;
#101 = VERTEX_POINT ( 'NONE', #170 ) ;
#102 = CIRCLE ( 'NONE', #162, 5.000000000000000000 ) ;
#103 = LINE ( 'NONE', #203, #91 ) ;
#104 = CARTESIAN_POINT ( 'NONE',  ( 0.000000000000000000, 0.000000000000000000, 633.0000000000000000 ) ) ;
#105 = ADVANCED_FACE ( 'NONE', ( #259 ), #44, .T. ) ;
#106 = EDGE_CURVE ( 'NONE', #301, #1, #137, .T. ) ;
#107 = CARTESIAN_POINT ( 'NONE',  ( -5.000000000000000000, 0.000000000000000000, 0.000000000000000000 ) ) ;
#108 = DIRECTION ( 'NONE',  ( 1.000000000000000000, 0.000000000000000000, 0.000000000000000000 ) ) ;
#109 = ORGANIZATION ( 'NEURÈENÝ', 'NEURÈENÝ', '' ) ;
#110 = DATE_TIME_ROLE ( 'creation_date' ) ;
#111 = PLANE ( 'NONE',  #124 ) ;
#112 = EDGE_CURVE ( 'NONE', #150, #63, #216, .T. ) ;
#113 = PERSON_AND_ORGANIZATION ( #53, #109 ) ;
#114 = CARTESIAN_POINT ( 'NONE',  ( 0.000000000000000000, 0.000000000000000000, 633.0000000000000000 ) ) ;
#115 = DATE_AND_TIME ( #215, #242 ) ;
#116 = ADVANCED_FACE ( 'NONE', ( #85 ), #233, .T. ) ;
#117 = EDGE_LOOP ( 'NONE', ( #264, #121 ) ) ;
#118 = APPROVAL_ROLE ( '' ) ;
#119 = ADVANCED_FACE ( 'NONE', ( #226 ), #81, .F. ) ;
#120 = AXIS2_PLACEMENT_3D ( 'NONE', #149, #198, #171 ) ;
#121 = ORIENTED_EDGE ( 'NONE', *, *, #254, .T. ) ;
#122 = DIRECTION ( 'NONE',  ( 0.000000000000000000, 0.000000000000000000, 1.000000000000000000 ) ) ;
#123 = DIRECTION ( 'NONE',  ( -0.000000000000000000, -0.000000000000000000, -1.000000000000000000 ) ) ;
#124 = AXIS2_PLACEMENT_3D ( 'NONE', #246, #209, #132 ) ;
#125 = ORIENTED_EDGE ( 'NONE', *, *, #67, .T. ) ;
#126 = CARTESIAN_POINT ( 'NONE',  ( 0.000000000000000000, 0.000000000000000000, 0.000000000000000000 ) ) ;
#127 = DIRECTION ( 'NONE',  ( 1.000000000000000000, 0.000000000000000000, 0.000000000000000000 ) ) ;
#128 = AXIS2_PLACEMENT_3D ( 'NONE', #240, #244, #243 ) ;
#129 = EDGE_CURVE ( 'NONE', #220, #90, #102, .T. ) ;
#130 = LINE ( 'NONE', #211, #97 ) ;
#131 = ADVANCED_FACE ( 'NONE', ( #268 ), #140, .T. ) ;
#132 = DIRECTION ( 'NONE',  ( 1.000000000000000000, 0.000000000000000000, -0.000000000000000000 ) ) ;
#133 = APPLICATION_CONTEXT ( 'configuration controlled 3d designs of mechanical parts and assemblies' ) ;
#134 = PERSON_AND_ORGANIZATION ( #53, #109 ) ;
#135 = CARTESIAN_POINT ( 'NONE',  ( 2.799999999999999822, 0.000000000000000000, 3.199999999999980638 ) ) ;
#136 = AXIS2_PLACEMENT_3D ( 'NONE', #135, #6, #252 ) ;
#137 = CIRCLE ( 'NONE', #136, 0.2000000000000000944 ) ;
#138 = DIRECTION ( 'NONE',  ( -1.000000000000000000, 0.000000000000000000, 0.000000000000000000 ) ) ;
#139 = APPROVAL_PERSON_ORGANIZATION ( #234, #286, #16 ) ;
#140 = CYLINDRICAL_SURFACE ( 'NONE', #231, 2.600000000000000089 ) ;
#141 = COORDINATED_UNIVERSAL_TIME_OFFSET ( 1, 0, .AHEAD. ) ;
#142 =( NAMED_UNIT ( * ) PLANE_ANGLE_UNIT ( ) SI_UNIT ( $, .RADIAN. ) );
#143 = CIRCLE ( 'NONE', #65, 2.600000000000000089 ) ;
#144 = ORIENTED_EDGE ( 'NONE', *, *, #112, .T. ) ;
#145 = MANIFOLD_SOLID_BREP ( 'Zaoblit1', #23 ) ;
#146 = EDGE_LOOP ( 'NONE', ( #194, #144, #284, #96 ) ) ;
#147 = CC_DESIGN_PERSON_AND_ORGANIZATION_ASSIGNMENT ( #210, #160, ( #167 ) ) ;
#148 = ORIENTED_EDGE ( 'NONE', *, *, #188, .T. ) ;
#149 = CARTESIAN_POINT ( 'NONE',  ( 0.000000000000000000, 0.000000000000000000, 633.0000000000000000 ) ) ;
#150 = VERTEX_POINT ( 'NONE', #15 ) ;
#151 = VECTOR ( 'NONE', #155, 1000.000000000000000 ) ;
#152 = CARTESIAN_POINT ( 'NONE',  ( 0.000000000000000000, 0.000000000000000000, 3.000000000000000000 ) ) ;
#153 = ORIENTED_EDGE ( 'NONE', *, *, #274, .F. ) ;
#154 = ORIENTED_EDGE ( 'NONE', *, *, #188, .F. ) ;
#155 = DIRECTION ( 'NONE',  ( -0.000000000000000000, -0.000000000000000000, -1.000000000000000000 ) ) ;
#156 = PERSON_AND_ORGANIZATION ( #53, #109 ) ;
#157 = DIRECTION ( 'NONE',  ( -0.000000000000000000, -0.000000000000000000, -1.000000000000000000 ) ) ;
#158 = APPROVAL_DATE_TIME ( #115, #286 ) ;
#159 = DIRECTION ( 'NONE',  ( 0.000000000000000000, 0.000000000000000000, 1.000000000000000000 ) ) ;
#160 = PERSON_AND_ORGANIZATION_ROLE ( 'creator' ) ;
#161 = CARTESIAN_POINT ( 'NONE',  ( 0.000000000000000000, 0.000000000000000000, 633.0000000000000000 ) ) ;
#162 = AXIS2_PLACEMENT_3D ( 'NONE', #58, #248, #266 ) ;
#163 = CALENDAR_DATE ( 2022, 7, 7 ) ;
#164 = PRODUCT ( '8720', '8720', '', ( #275 ) ) ;
#165 = CC_DESIGN_PERSON_AND_ORGANIZATION_ASSIGNMENT ( #113, #249, ( #99 ) ) ;
#166 = APPROVAL_DATE_TIME ( #189, #8 ) ;
#167 = PRODUCT_DEFINITION_FORMATION_WITH_SPECIFIED_SOURCE ( 'LIBOVOLNÝ', '', #164, .NOT_KNOWN. ) ;
#168 = EDGE_LOOP ( 'NONE', ( #68, #256, #72, #258 ) ) ;
#169 = CC_DESIGN_PERSON_AND_ORGANIZATION_ASSIGNMENT ( #56, #295, ( #167 ) ) ;
#170 = CARTESIAN_POINT ( 'NONE',  ( -5.000000000000000000, 0.000000000000000000, 3.000000000000000000 ) ) ;
#171 = DIRECTION ( 'NONE',  ( 1.000000000000000000, 0.000000000000000000, -0.000000000000000000 ) ) ;
#172 = DIRECTION ( 'NONE',  ( -0.000000000000000000, -0.000000000000000000, -1.000000000000000000 ) ) ;
#173 = SECURITY_CLASSIFICATION ( '', '', #187 ) ;
#174 = CC_DESIGN_DATE_AND_TIME_ASSIGNMENT ( #86, #110, ( #99 ) ) ;
#175 = DIRECTION ( 'NONE',  ( 1.000000000000000000, 0.000000000000000000, 0.000000000000000000 ) ) ;
#176 = PLANE ( 'NONE',  #261 ) ;
#177 = DIRECTION ( 'NONE',  ( -0.000000000000000000, -0.000000000000000000, -1.000000000000000000 ) ) ;
#178 = LOCAL_TIME ( 12, 16, 51.00000000000000000, #141 ) ;
#179 = CARTESIAN_POINT ( 'NONE',  ( 0.000000000000000000, 0.000000000000000000, 3.000000000000000000 ) ) ;
#180 = APPLICATION_PROTOCOL_DEFINITION ( 'international standard', 'config_control_design', 1994, #133 ) ;
#181 = CARTESIAN_POINT ( 'NONE',  ( 2.600000000000000089, 3.184081677783118191E-16, 3.199999999999980638 ) ) ;
#182 = APPROVAL_ROLE ( '' ) ;
#183 = DIRECTION ( 'NONE',  ( -0.000000000000000000, -0.000000000000000000, -1.000000000000000000 ) ) ;
#184 = AXIS2_PLACEMENT_3D ( 'NONE', #219, #122, #77 ) ;
#185 = PERSON_AND_ORGANIZATION ( #53, #109 ) ;
#186 = CARTESIAN_POINT ( 'NONE',  ( 0.000000000000000000, 0.000000000000000000, 3.199999999999980638 ) ) ;
#187 = SECURITY_CLASSIFICATION_LEVEL ( 'unclassified' ) ;
#188 = EDGE_CURVE ( 'NONE', #283, #90, #130, .T. ) ;
#189 = DATE_AND_TIME ( #60, #70 ) ;
#190 = CC_DESIGN_DATE_AND_TIME_ASSIGNMENT ( #227, #230, ( #173 ) ) ;
#191 = AXIS2_PLACEMENT_3D ( 'NONE', #152, #28, #307 ) ;
#192 = AXIS2_PLACEMENT_3D ( 'NONE', #289, #78, #294 ) ;
#193 = ORIENTED_EDGE ( 'NONE', *, *, #64, .F. ) ;
#194 = ORIENTED_EDGE ( 'NONE', *, *, #271, .F. ) ;
#195 = CIRCLE ( 'NONE', #184, 5.000000000000000000 ) ;
#196 = ORIENTED_EDGE ( 'NONE', *, *, #223, .F. ) ;
#197 = AXIS2_PLACEMENT_3D ( 'NONE', #80, #55, #34 ) ;
#198 = DIRECTION ( 'NONE',  ( 0.000000000000000000, 0.000000000000000000, 1.000000000000000000 ) ) ;
#199 = ORIENTED_EDGE ( 'NONE', *, *, #274, .T. ) ;
#200 = ADVANCED_FACE ( 'NONE', ( #14 ), #7, .T. ) ;
#201 = CARTESIAN_POINT ( 'NONE',  ( 2.799999999999999822, 0.000000000000000000, 2.999999999999990674 ) ) ;
#202 = AXIS2_PLACEMENT_3D ( 'NONE', #114, #89, #228 ) ;
#203 = CARTESIAN_POINT ( 'NONE',  ( -2.600000000000000089, 0.000000000000000000, 633.0000000000000000 ) ) ;
#204 = DIRECTION ( 'NONE',  ( 1.000000000000000000, 0.000000000000000000, 0.000000000000000000 ) ) ;
#205 = CYLINDRICAL_SURFACE ( 'NONE', #75, 2.600000000000000089 ) ;
#206 = LOCAL_TIME ( 12, 16, 51.00000000000000000, #272 ) ;
#207 = CARTESIAN_POINT ( 'NONE',  ( -5.000000000000000000, 0.000000000000000000, 3.000000000000000000 ) ) ;
#208 = CALENDAR_DATE ( 2022, 7, 7 ) ;
#209 = DIRECTION ( 'NONE',  ( 0.000000000000000000, 0.000000000000000000, 1.000000000000000000 ) ) ;
#210 = PERSON_AND_ORGANIZATION ( #53, #109 ) ;
#211 = CARTESIAN_POINT ( 'NONE',  ( 5.000000000000000000, 6.123233995736766282E-16, 3.000000000000000000 ) ) ;
#212 = CIRCLE ( 'NONE', #191, 2.799999999999999822 ) ;
#213 = DIRECTION ( 'NONE',  ( 0.000000000000000000, 0.000000000000000000, 1.000000000000000000 ) ) ;
#214 = ORIENTED_EDGE ( 'NONE', *, *, #51, .T. ) ;
#215 = CALENDAR_DATE ( 2022, 7, 7 ) ;
#216 = CIRCLE ( 'NONE', #192, 0.2000000000000000944 ) ;
#217 = ORIENTED_EDGE ( 'NONE', *, *, #79, .T. ) ;
#218 = FACE_OUTER_BOUND ( 'NONE', #265, .T. ) ;
#219 = CARTESIAN_POINT ( 'NONE',  ( 0.000000000000000000, 0.000000000000000000, 3.000000000000000000 ) ) ;
#220 = VERTEX_POINT ( 'NONE', #107 ) ;
#221 = LINE ( 'NONE', #222, #46 ) ;
#222 = CARTESIAN_POINT ( 'NONE',  ( 2.600000000000000089, 3.184081677783118191E-16, 633.0000000000000000 ) ) ;
#223 = EDGE_CURVE ( 'NONE', #100, #42, #41, .T. ) ;
#224 = DIRECTION ( 'NONE',  ( 0.000000000000000000, 0.000000000000000000, 1.000000000000000000 ) ) ;
#225 = UNCERTAINTY_MEASURE_WITH_UNIT (LENGTH_MEASURE( 1.000000000000000082E-05 ), #17, 'distance_accuracy_value', 'NONE');
#226 = FACE_OUTER_BOUND ( 'NONE', #168, .T. ) ;
#227 = DATE_AND_TIME ( #163, #206 ) ;
#228 = DIRECTION ( 'NONE',  ( 1.000000000000000000, 0.000000000000000000, 0.000000000000000000 ) ) ;
#229 = AXIS2_PLACEMENT_3D ( 'NONE', #126, #22, #127 ) ;
#230 = DATE_TIME_ROLE ( 'classification_date' ) ;
#231 = AXIS2_PLACEMENT_3D ( 'NONE', #161, #232, #83 ) ;
#232 = DIRECTION ( 'NONE',  ( -0.000000000000000000, -0.000000000000000000, -1.000000000000000000 ) ) ;
#233 = CYLINDRICAL_SURFACE ( 'NONE', #19, 5.000000000000000000 ) ;
#234 = PERSON_AND_ORGANIZATION ( #53, #109 ) ;
#235 = CALENDAR_DATE ( 2022, 7, 7 ) ;
#236 = TOROIDAL_SURFACE ( 'NONE', #279, 2.799999999999999822, 0.2000000000000000111 ) ;
#237 = EDGE_LOOP ( 'NONE', ( #281, #217, #76, #285 ) ) ;
#238 = ORIENTED_EDGE ( 'NONE', *, *, #129, .F. ) ;
#239 = ORIENTED_EDGE ( 'NONE', *, *, #129, .T. ) ;
#240 = CARTESIAN_POINT ( 'NONE',  ( 0.000000000000000000, 0.000000000000000000, 3.199999999999980638 ) ) ;
#241 = DIRECTION ( 'NONE',  ( 0.000000000000000000, 0.000000000000000000, 1.000000000000000000 ) ) ;
#242 = LOCAL_TIME ( 12, 16, 51.00000000000000000, #9 ) ;
#243 = DIRECTION ( 'NONE',  ( 1.000000000000000000, 0.000000000000000000, 0.000000000000000000 ) ) ;
#244 = DIRECTION ( 'NONE',  ( 0.000000000000000000, 0.000000000000000000, 1.000000000000000000 ) ) ;
#245 = DIRECTION ( 'NONE',  ( 0.000000000000000000, 0.000000000000000000, 1.000000000000000000 ) ) ;
#246 = CARTESIAN_POINT ( 'NONE',  ( 0.000000000000000000, 0.000000000000000000, 3.000000000000000000 ) ) ;
#247 = PERSON_AND_ORGANIZATION_ROLE ( 'design_owner' ) ;
#248 = DIRECTION ( 'NONE',  ( 0.000000000000000000, 0.000000000000000000, 1.000000000000000000 ) ) ;
#249 = PERSON_AND_ORGANIZATION_ROLE ( 'creator' ) ;
#250 = DIRECTION ( 'NONE',  ( -1.000000000000000000, 0.000000000000000000, 0.000000000000000000 ) ) ;
#251 = ADVANCED_FACE ( 'NONE', ( #273 ), #236, .F. ) ;
#252 = DIRECTION ( 'NONE',  ( 0.000000000000000000, 0.000000000000000000, -1.000000000000000000 ) ) ;
#253 = PERSON_AND_ORGANIZATION_ROLE ( 'classification_officer' ) ;
#254 = EDGE_CURVE ( 'NONE', #42, #100, #143, .T. ) ;
#255 = AXIS2_PLACEMENT_3D ( 'NONE', #179, #57, #250 ) ;
#256 = ORIENTED_EDGE ( 'NONE', *, *, #59, .F. ) ;
#257 = ADVANCED_FACE ( 'NONE', ( #31 ), #205, .T. ) ;
#258 = ORIENTED_EDGE ( 'NONE', *, *, #32, .F. ) ;
#259 = FACE_OUTER_BOUND ( 'NONE', #117, .T. ) ;
#260 = CARTESIAN_POINT ( 'NONE',  ( 5.000000000000000000, 6.123233995736766282E-16, 0.000000000000000000 ) ) ;
#261 = AXIS2_PLACEMENT_3D ( 'NONE', #21, #305, #282 ) ;
#262 = EDGE_LOOP ( 'NONE', ( #214, #92 ) ) ;
#263 = CC_DESIGN_SECURITY_CLASSIFICATION ( #173, ( #167 ) ) ;
#264 = ORIENTED_EDGE ( 'NONE', *, *, #223, .T. ) ;
#265 = EDGE_LOOP ( 'NONE', ( #238, #98 ) ) ;
#266 = DIRECTION ( 'NONE',  ( 1.000000000000000000, 0.000000000000000000, 0.000000000000000000 ) ) ;
#267 =( GEOMETRIC_REPRESENTATION_CONTEXT ( 3 ) GLOBAL_UNCERTAINTY_ASSIGNED_CONTEXT ( ( #225 ) ) GLOBAL_UNIT_ASSIGNED_CONTEXT ( ( #17, #142, #293 ) ) REPRESENTATION_CONTEXT ( 'NONE', 'WORKASPACE' ) );
#268 = FACE_OUTER_BOUND ( 'NONE', #299, .T. ) ;
#269 = APPROVAL_DATE_TIME ( #39, #69 ) ;
#270 = APPROVAL_STATUS ( 'not_yet_approved' ) ;
#271 = EDGE_CURVE ( 'NONE', #150, #301, #43, .T. ) ;
#272 = COORDINATED_UNIVERSAL_TIME_OFFSET ( 1, 0, .AHEAD. ) ;
#273 = FACE_OUTER_BOUND ( 'NONE', #146, .T. ) ;
#274 = EDGE_CURVE ( 'NONE', #101, #220, #11, .T. ) ;
#275 = MECHANICAL_CONTEXT ( 'NONE', #26, 'mechanical' ) ;
#276 = APPROVAL_STATUS ( 'not_yet_approved' ) ;
#277 = EDGE_LOOP ( 'NONE', ( #193, #148, #66, #153 ) ) ;
#278 = CIRCLE ( 'NONE', #128, 2.600000000000000089 ) ;
#279 = AXIS2_PLACEMENT_3D ( 'NONE', #186, #159, #61 ) ;
#280 = EDGE_LOOP ( 'NONE', ( #125, #2 ) ) ;
#281 = ORIENTED_EDGE ( 'NONE', *, *, #254, .F. ) ;
#282 = DIRECTION ( 'NONE',  ( 1.000000000000000000, 0.000000000000000000, -0.000000000000000000 ) ) ;
#283 = VERTEX_POINT ( 'NONE', #292 ) ;
#284 = ORIENTED_EDGE ( 'NONE', *, *, #67, .F. ) ;
#285 = ORIENTED_EDGE ( 'NONE', *, *, #94, .F. ) ;
#286 = APPROVAL ( #276, 'NEURÈENÝ' ) ;
#287 = ORIENTED_EDGE ( 'NONE', *, *, #79, .F. ) ;
#288 = CARTESIAN_POINT ( 'NONE',  ( 0.000000000000000000, 0.000000000000000000, 633.0000000000000000 ) ) ;
#289 = CARTESIAN_POINT ( 'NONE',  ( -2.799999999999999822, 3.429011037612588783E-16, 3.199999999999980638 ) ) ;
#290 = APPLICATION_PROTOCOL_DEFINITION ( 'international standard', 'config_control_design', 1994, #26 ) ;
#291 = CC_DESIGN_APPROVAL ( #69, ( #99 ) ) ;
#292 = CARTESIAN_POINT ( 'NONE',  ( 5.000000000000000000, 6.123233995736766282E-16, 3.000000000000000000 ) ) ;
#293 =( NAMED_UNIT ( * ) SI_UNIT ( $, .STERADIAN. ) SOLID_ANGLE_UNIT ( ) );
#294 = DIRECTION ( 'NONE',  ( -1.000000000000000000, 1.224646799147353207E-16, 0.000000000000000000 ) ) ;
#295 = PERSON_AND_ORGANIZATION_ROLE ( 'design_supplier' ) ;
#296 = AXIS2_PLACEMENT_3D ( 'NONE', #30, #241, #50 ) ;
#297 = CARTESIAN_POINT ( 'NONE',  ( 0.000000000000000000, 0.000000000000000000, 3.199999999999980638 ) ) ;
#298 = COORDINATED_UNIVERSAL_TIME_OFFSET ( 1, 0, .AHEAD. ) ;
#299 = EDGE_LOOP ( 'NONE', ( #287, #196, #49, #40 ) ) ;
#300 = SHAPE_DEFINITION_REPRESENTATION ( #27, #88 ) ;
#301 = VERTEX_POINT ( 'NONE', #181 ) ;
#302 = CIRCLE ( 'NONE', #229, 5.000000000000000000 ) ;
#303 = APPROVAL_PERSON_ORGANIZATION ( #134, #69, #182 ) ;
#304 = ADVANCED_FACE ( 'NONE', ( #33, #36 ), #111, .T. ) ;
#305 = DIRECTION ( 'NONE',  ( 0.000000000000000000, 0.000000000000000000, 1.000000000000000000 ) ) ;
#306 = AXIS2_PLACEMENT_3D ( 'NONE', #82, #213, #12 ) ;
#307 = DIRECTION ( 'NONE',  ( 1.000000000000000000, 0.000000000000000000, 0.000000000000000000 ) ) ;
ENDSEC;
END-ISO-10303-21;
