ISO-10303-21;
HEADER;
FILE_DESCRIPTION (( 'STEP AP203' ),
    '1' );
FILE_NAME ('585a.STEP',
    '2022-07-07T10:04:29',
    ( '' ),
    ( '' ),
    'SwSTEP 2.0',
    'SolidWorks 2019',
    '' );
FILE_SCHEMA (( 'CONFIG_CONTROL_DESIGN' ));
ENDSEC;

DATA;
#1 = CC_DESIGN_PERSON_AND_ORGANIZATION_ASSIGNMENT ( #307, #47, ( #243 ) ) ;
#2 = DATE_AND_TIME ( #211, #282 ) ;
#3 = VERTEX_POINT ( 'NONE', #217 ) ;
#4 =( NAMED_UNIT ( * ) SI_UNIT ( $, .STERADIAN. ) SOLID_ANGLE_UNIT ( ) );
#5 = DATE_AND_TIME ( #27, #192 ) ;
#6 = EDGE_CURVE ( 'NONE', #232, #262, #154, .T. ) ;
#7 = ORIENTED_EDGE ( 'NONE', *, *, #33, .F. ) ;
#8 = CIRCLE ( 'NONE', #45, 6.000000000000000888 ) ;
#9 = ORIENTED_EDGE ( 'NONE', *, *, #65, .T. ) ;
#10 = DIRECTION ( 'NONE',  ( 0.000000000000000000, 0.000000000000000000, 1.000000000000000000 ) ) ;
#11 = CARTESIAN_POINT ( 'NONE',  ( 0.000000000000000000, 0.000000000000000000, 635.0000000000000000 ) ) ;
#12 = PRODUCT_RELATED_PRODUCT_CATEGORY ( 'detail', '', ( #277 ) ) ;
#13 = CARTESIAN_POINT ( 'NONE',  ( 0.000000000000000000, 0.000000000000000000, 0.000000000000000000 ) ) ;
#14 = CC_DESIGN_APPROVAL ( #62, ( #79 ) ) ;
#15 = DIRECTION ( 'NONE',  ( -0.000000000000000000, -0.000000000000000000, -1.000000000000000000 ) ) ;
#16 = CARTESIAN_POINT ( 'NONE',  ( 3.750000000000000000, 4.592425496802573972E-16, 5.199999999999982414 ) ) ;
#17 = DIRECTION ( 'NONE',  ( 1.000000000000000000, 0.000000000000000000, 0.000000000000000000 ) ) ;
#18 = CARTESIAN_POINT ( 'NONE',  ( -3.750000000000000000, 0.000000000000000000, 5.199999999999982414 ) ) ;
#19 = EDGE_CURVE ( 'NONE', #262, #72, #98, .T. ) ;
#20 = CARTESIAN_POINT ( 'NONE',  ( 6.000000000000000888, 7.347880794884120722E-16, 0.000000000000000000 ) ) ;
#21 = CARTESIAN_POINT ( 'NONE',  ( -6.000000000000000888, 0.000000000000000000, 5.000000000000000000 ) ) ;
#22 = COORDINATED_UNIVERSAL_TIME_OFFSET ( 1, 0, .AHEAD. ) ;
#23 = ORIENTED_EDGE ( 'NONE', *, *, #53, .F. ) ;
#24 = APPROVAL ( #67, 'NEURÈENÝ' ) ;
#25 = APPROVAL_ROLE ( '' ) ;
#26 = TOROIDAL_SURFACE ( 'NONE', #202, 3.949999999999999734, 0.2000000000000000111 ) ;
#27 = CALENDAR_DATE ( 2022, 7, 7 ) ;
#28 = COORDINATED_UNIVERSAL_TIME_OFFSET ( 1, 0, .AHEAD. ) ;
#29 = ORIENTED_EDGE ( 'NONE', *, *, #106, .T. ) ;
#30 = AXIS2_PLACEMENT_3D ( 'NONE', #306, #84, #105 ) ;
#31 = LINE ( 'NONE', #75, #246 ) ;
#32 = MANIFOLD_SOLID_BREP ( 'Zaoblit1', #36 ) ;
#33 = EDGE_CURVE ( 'NONE', #258, #190, #191, .T. ) ;
#34 = DIRECTION ( 'NONE',  ( 1.224646799147353207E-16, 1.000000000000000000, -0.000000000000000000 ) ) ;
#35 = ORIENTED_EDGE ( 'NONE', *, *, #129, .T. ) ;
#36 = CLOSED_SHELL ( 'NONE', ( #151, #303, #176, #38, #220, #200, #239, #183, #229 ) ) ;
#37 = CC_DESIGN_APPROVAL ( #249, ( #243 ) ) ;
#38 = ADVANCED_FACE ( 'NONE', ( #99 ), #297, .T. ) ;
#39 = ORIENTED_EDGE ( 'NONE', *, *, #81, .T. ) ;
#40 = CARTESIAN_POINT ( 'NONE',  ( 3.750000000000000000, 4.592425496802573972E-16, 635.0000000000000000 ) ) ;
#41 = CARTESIAN_POINT ( 'NONE',  ( 0.000000000000000000, 0.000000000000000000, 5.199999999999982414 ) ) ;
#42 = CARTESIAN_POINT ( 'NONE',  ( 0.000000000000000000, 0.000000000000000000, 5.000000000000000000 ) ) ;
#43 = PLANE ( 'NONE',  #126 ) ;
#44 = CYLINDRICAL_SURFACE ( 'NONE', #263, 6.000000000000000888 ) ;
#45 = AXIS2_PLACEMENT_3D ( 'NONE', #194, #218, #292 ) ;
#46 = AXIS2_PLACEMENT_3D ( 'NONE', #225, #251, #227 ) ;
#47 = PERSON_AND_ORGANIZATION_ROLE ( 'creator' ) ;
#48 = PERSON_AND_ORGANIZATION_ROLE ( 'creator' ) ;
#49 = EDGE_CURVE ( 'NONE', #190, #3, #87, .T. ) ;
#50 = APPROVAL_ROLE ( '' ) ;
#51 = ORIENTED_EDGE ( 'NONE', *, *, #19, .T. ) ;
#52 = ORIENTED_EDGE ( 'NONE', *, *, #85, .F. ) ;
#53 = EDGE_CURVE ( 'NONE', #68, #278, #31, .T. ) ;
#54 = CARTESIAN_POINT ( 'NONE',  ( 3.750000000000000000, 4.592425496802573972E-16, 635.0000000000000000 ) ) ;
#55 = CARTESIAN_POINT ( 'NONE',  ( 6.000000000000000888, 7.347880794884120722E-16, 5.000000000000000000 ) ) ;
#56 = EDGE_LOOP ( 'NONE', ( #244, #51, #213, #120 ) ) ;
#57 = CARTESIAN_POINT ( 'NONE',  ( -3.750000000000000000, 0.000000000000000000, 635.0000000000000000 ) ) ;
#58 = AXIS2_PLACEMENT_3D ( 'NONE', #175, #15, #261 ) ;
#59 = FACE_OUTER_BOUND ( 'NONE', #148, .T. ) ;
#60 = FACE_OUTER_BOUND ( 'NONE', #188, .T. ) ;
#61 = DIRECTION ( 'NONE',  ( 0.000000000000000000, 0.000000000000000000, 1.000000000000000000 ) ) ;
#62 = APPROVAL ( #233, 'NEURÈENÝ' ) ;
#63 = PLANE ( 'NONE',  #241 ) ;
#64 = DIRECTION ( 'NONE',  ( 1.000000000000000000, 0.000000000000000000, 0.000000000000000000 ) ) ;
#65 = EDGE_CURVE ( 'NONE', #232, #258, #296, .T. ) ;
#66 = ORIENTED_EDGE ( 'NONE', *, *, #275, .F. ) ;
#67 = APPROVAL_STATUS ( 'not_yet_approved' ) ;
#68 = VERTEX_POINT ( 'NONE', #55 ) ;
#69 = CARTESIAN_POINT ( 'NONE',  ( 0.000000000000000000, 0.000000000000000000, 0.000000000000000000 ) ) ;
#70 = DIRECTION ( 'NONE',  ( 1.000000000000000000, 0.000000000000000000, 0.000000000000000000 ) ) ;
#71 = ORIENTED_EDGE ( 'NONE', *, *, #81, .F. ) ;
#72 = VERTEX_POINT ( 'NONE', #16 ) ;
#73 = PRODUCT_DEFINITION ( 'NEZNÁMÝ', '', #243, #255 ) ;
#74 = EDGE_LOOP ( 'NONE', ( #238, #141 ) ) ;
#75 = CARTESIAN_POINT ( 'NONE',  ( 6.000000000000000888, 7.347880794884120722E-16, 5.000000000000000000 ) ) ;
#76 = ORIENTED_EDGE ( 'NONE', *, *, #6, .F. ) ;
#77 = CARTESIAN_POINT ( 'NONE',  ( -6.000000000000000888, 0.000000000000000000, 5.000000000000000000 ) ) ;
#78 = DIRECTION ( 'NONE',  ( 1.000000000000000000, 0.000000000000000000, 0.000000000000000000 ) ) ;
#79 = SECURITY_CLASSIFICATION ( '', '', #112 ) ;
#80 = DIRECTION ( 'NONE',  ( 0.000000000000000000, 0.000000000000000000, 1.000000000000000000 ) ) ;
#81 = EDGE_CURVE ( 'NONE', #72, #3, #149, .T. ) ;
#82 = FACE_OUTER_BOUND ( 'NONE', #56, .T. ) ;
#83 = CARTESIAN_POINT ( 'NONE',  ( -3.750000000000000000, 0.000000000000000000, 635.0000000000000000 ) ) ;
#84 = DIRECTION ( 'NONE',  ( 0.000000000000000000, 0.000000000000000000, 1.000000000000000000 ) ) ;
#85 = EDGE_CURVE ( 'NONE', #170, #283, #264, .T. ) ;
#86 = PERSON_AND_ORGANIZATION ( #136, #215 ) ;
#87 = CIRCLE ( 'NONE', #92, 3.949999999999999734 ) ;
#88 =( NAMED_UNIT ( * ) PLANE_ANGLE_UNIT ( ) SI_UNIT ( $, .RADIAN. ) );
#89 = EDGE_LOOP ( 'NONE', ( #93, #76, #9, #109 ) ) ;
#90 = PERSON_AND_ORGANIZATION ( #136, #215 ) ;
#91 = ORIENTED_EDGE ( 'NONE', *, *, #106, .F. ) ;
#92 = AXIS2_PLACEMENT_3D ( 'NONE', #294, #199, #247 ) ;
#93 = ORIENTED_EDGE ( 'NONE', *, *, #19, .F. ) ;
#94 = CC_DESIGN_PERSON_AND_ORGANIZATION_ASSIGNMENT ( #212, #257, ( #277 ) ) ;
#95 = DIRECTION ( 'NONE',  ( 1.000000000000000000, 0.000000000000000000, 0.000000000000000000 ) ) ;
#96 = PRODUCT_DEFINITION_SHAPE ( 'NONE', 'NONE',  #73 ) ;
#97 = DIRECTION ( 'NONE',  ( 1.000000000000000000, 0.000000000000000000, 0.000000000000000000 ) ) ;
#98 = LINE ( 'NONE', #54, #143 ) ;
#99 = FACE_OUTER_BOUND ( 'NONE', #288, .T. ) ;
#100 = DIRECTION ( 'NONE',  ( 1.000000000000000000, 0.000000000000000000, 0.000000000000000000 ) ) ;
#101 = TOROIDAL_SURFACE ( 'NONE', #280, 3.949999999999999734, 0.2000000000000000111 ) ;
#102 = CARTESIAN_POINT ( 'NONE',  ( -6.000000000000000888, 0.000000000000000000, 0.000000000000000000 ) ) ;
#103 = AXIS2_PLACEMENT_3D ( 'NONE', #230, #228, #100 ) ;
#104 = AXIS2_PLACEMENT_3D ( 'NONE', #42, #107, #64 ) ;
#105 = DIRECTION ( 'NONE',  ( 1.000000000000000000, 0.000000000000000000, 0.000000000000000000 ) ) ;
#106 = EDGE_CURVE ( 'NONE', #68, #170, #185, .T. ) ;
#107 = DIRECTION ( 'NONE',  ( -0.000000000000000000, -0.000000000000000000, -1.000000000000000000 ) ) ;
#108 = DATE_TIME_ROLE ( 'creation_date' ) ;
#109 = ORIENTED_EDGE ( 'NONE', *, *, #137, .T. ) ;
#110 = COORDINATED_UNIVERSAL_TIME_OFFSET ( 1, 0, .AHEAD. ) ;
#111 = CC_DESIGN_DATE_AND_TIME_ASSIGNMENT ( #184, #182, ( #79 ) ) ;
#112 = SECURITY_CLASSIFICATION_LEVEL ( 'unclassified' ) ;
#113 = ORIENTED_EDGE ( 'NONE', *, *, #49, .F. ) ;
#114 = PERSON_AND_ORGANIZATION ( #136, #215 ) ;
#115 = EDGE_CURVE ( 'NONE', #278, #283, #8, .T. ) ;
#116 = EDGE_LOOP ( 'NONE', ( #166, #29 ) ) ;
#117 = CIRCLE ( 'NONE', #299, 6.000000000000000888 ) ;
#118 = AXIS2_PLACEMENT_3D ( 'NONE', #301, #80, #178 ) ;
#119 = DIRECTION ( 'NONE',  ( -0.000000000000000000, -0.000000000000000000, -1.000000000000000000 ) ) ;
#120 = ORIENTED_EDGE ( 'NONE', *, *, #65, .F. ) ;
#121 = CARTESIAN_POINT ( 'NONE',  ( 0.000000000000000000, 0.000000000000000000, 5.000000000000000000 ) ) ;
#122 = AXIS2_PLACEMENT_3D ( 'NONE', #11, #123, #97 ) ;
#123 = DIRECTION ( 'NONE',  ( 0.000000000000000000, 0.000000000000000000, 1.000000000000000000 ) ) ;
#124 = ORIENTED_EDGE ( 'NONE', *, *, #85, .T. ) ;
#125 = DIRECTION ( 'NONE',  ( 0.000000000000000000, 0.000000000000000000, 1.000000000000000000 ) ) ;
#126 = AXIS2_PLACEMENT_3D ( 'NONE', #274, #61, #131 ) ;
#127 = CYLINDRICAL_SURFACE ( 'NONE', #46, 3.750000000000000000 ) ;
#128 = FACE_OUTER_BOUND ( 'NONE', #89, .T. ) ;
#129 = EDGE_CURVE ( 'NONE', #283, #278, #117, .T. ) ;
#130 = FACE_OUTER_BOUND ( 'NONE', #134, .T. ) ;
#131 = DIRECTION ( 'NONE',  ( 1.000000000000000000, 0.000000000000000000, -0.000000000000000000 ) ) ;
#132 = AXIS2_PLACEMENT_3D ( 'NONE', #121, #10, #95 ) ;
#133 = APPROVAL_DATE_TIME ( #158, #24 ) ;
#134 = EDGE_LOOP ( 'NONE', ( #221, #163 ) ) ;
#135 = PERSON_AND_ORGANIZATION ( #136, #215 ) ;
#136 = PERSON ( 'NEURÈENÝ', 'NEURÈENÝ', 'NEURÈENÝ', ('NEURÈENÝ'), ('NEURÈENÝ'), ('NEURÈENÝ') ) ;
#137 = EDGE_CURVE ( 'NONE', #258, #72, #160, .T. ) ;
#138 = CALENDAR_DATE ( 2022, 7, 7 ) ;
#139 = DIRECTION ( 'NONE',  ( 0.000000000000000000, 0.000000000000000000, 1.000000000000000000 ) ) ;
#140 = APPROVAL_ROLE ( '' ) ;
#141 = ORIENTED_EDGE ( 'NONE', *, *, #49, .T. ) ;
#142 = EDGE_LOOP ( 'NONE', ( #91, #240, #237, #52 ) ) ;
#143 = VECTOR ( 'NONE', #145, 1000.000000000000000 ) ;
#144 = AXIS2_PLACEMENT_3D ( 'NONE', #69, #139, #70 ) ;
#145 = DIRECTION ( 'NONE',  ( -0.000000000000000000, -0.000000000000000000, -1.000000000000000000 ) ) ;
#146 = DIRECTION ( 'NONE',  ( -1.000000000000000000, 1.224646799147353454E-16, 0.000000000000000000 ) ) ;
#147 = SHAPE_DEFINITION_REPRESENTATION ( #96, #279 ) ;
#148 = EDGE_LOOP ( 'NONE', ( #222, #198, #66, #71 ) ) ;
#149 = CIRCLE ( 'NONE', #196, 0.1999999999999996503 ) ;
#150 = DIRECTION ( 'NONE',  ( -0.000000000000000000, -0.000000000000000000, -1.000000000000000000 ) ) ;
#151 = ADVANCED_FACE ( 'NONE', ( #59 ), #26, .F. ) ;
#152 = FACE_OUTER_BOUND ( 'NONE', #169, .T. ) ;
#153 = DIRECTION ( 'NONE',  ( 0.000000000000000000, 0.000000000000000000, 1.000000000000000000 ) ) ;
#154 = CIRCLE ( 'NONE', #122, 3.750000000000000000 ) ;
#155 = FACE_BOUND ( 'NONE', #74, .T. ) ;
#156 = CARTESIAN_POINT ( 'NONE',  ( 0.000000000000000000, 0.000000000000000000, 5.000000000000000000 ) ) ;
#157 = CARTESIAN_POINT ( 'NONE',  ( 0.000000000000000000, 0.000000000000000000, 635.0000000000000000 ) ) ;
#158 = DATE_AND_TIME ( #138, #281 ) ;
#159 = APPLICATION_CONTEXT ( 'configuration controlled 3d designs of mechanical parts and assemblies' ) ;
#160 = CIRCLE ( 'NONE', #30, 3.750000000000000000 ) ;
#161 = CC_DESIGN_DATE_AND_TIME_ASSIGNMENT ( #254, #108, ( #73 ) ) ;
#162 =( LENGTH_UNIT ( ) NAMED_UNIT ( * ) SI_UNIT ( .MILLI., .METRE. ) );
#163 = ORIENTED_EDGE ( 'NONE', *, *, #115, .F. ) ;
#164 = COORDINATED_UNIVERSAL_TIME_OFFSET ( 1, 0, .AHEAD. ) ;
#165 = ORIENTED_EDGE ( 'NONE', *, *, #6, .T. ) ;
#166 = ORIENTED_EDGE ( 'NONE', *, *, #209, .T. ) ;
#167 =( GEOMETRIC_REPRESENTATION_CONTEXT ( 3 ) GLOBAL_UNCERTAINTY_ASSIGNED_CONTEXT ( ( #231 ) ) GLOBAL_UNIT_ASSIGNED_CONTEXT ( ( #162, #88, #4 ) ) REPRESENTATION_CONTEXT ( 'NONE', 'WORKASPACE' ) );
#168 = CALENDAR_DATE ( 2022, 7, 7 ) ;
#169 = EDGE_LOOP ( 'NONE', ( #7, #245, #39, #113 ) ) ;
#170 = VERTEX_POINT ( 'NONE', #21 ) ;
#171 = CIRCLE ( 'NONE', #104, 3.949999999999999734 ) ;
#172 = CC_DESIGN_PERSON_AND_ORGANIZATION_ASSIGNMENT ( #90, #189, ( #79 ) ) ;
#173 = DIRECTION ( 'NONE',  ( 0.000000000000000000, 0.000000000000000000, -1.000000000000000000 ) ) ;
#174 = DIRECTION ( 'NONE',  ( 0.000000000000000000, 0.000000000000000000, 1.000000000000000000 ) ) ;
#175 = CARTESIAN_POINT ( 'NONE',  ( 0.000000000000000000, 0.000000000000000000, 5.000000000000000000 ) ) ;
#176 = ADVANCED_FACE ( 'NONE', ( #205 ), #44, .T. ) ;
#177 = DIRECTION ( 'NONE',  ( 1.000000000000000000, 0.000000000000000000, -0.000000000000000000 ) ) ;
#178 = DIRECTION ( 'NONE',  ( 1.000000000000000000, 0.000000000000000000, 0.000000000000000000 ) ) ;
#179 = DIRECTION ( 'NONE',  ( -0.000000000000000000, -0.000000000000000000, -1.000000000000000000 ) ) ;
#180 = PLANE ( 'NONE',  #273 ) ;
#181 = FACE_OUTER_BOUND ( 'NONE', #116, .T. ) ;
#182 = DATE_TIME_ROLE ( 'classification_date' ) ;
#183 = ADVANCED_FACE ( 'NONE', ( #60 ), #180, .T. ) ;
#184 = DATE_AND_TIME ( #208, #268 ) ;
#185 = CIRCLE ( 'NONE', #132, 6.000000000000000888 ) ;
#186 = APPROVAL_PERSON_ORGANIZATION ( #285, #24, #50 ) ;
#187 = PERSON_AND_ORGANIZATION ( #136, #215 ) ;
#188 = EDGE_LOOP ( 'NONE', ( #165, #289 ) ) ;
#189 = PERSON_AND_ORGANIZATION_ROLE ( 'classification_officer' ) ;
#190 = VERTEX_POINT ( 'NONE', #248 ) ;
#191 = CIRCLE ( 'NONE', #253, 0.1999999999999996503 ) ;
#192 = LOCAL_TIME ( 12, 4, 29.00000000000000000, #234 ) ;
#193 = DIRECTION ( 'NONE',  ( 0.000000000000000000, -1.000000000000000000, 0.000000000000000000 ) ) ;
#194 = CARTESIAN_POINT ( 'NONE',  ( 0.000000000000000000, 0.000000000000000000, 0.000000000000000000 ) ) ;
#195 = CARTESIAN_POINT ( 'NONE',  ( -3.949999999999999734, 4.837354856632044071E-16, 5.199999999999982414 ) ) ;
#196 = AXIS2_PLACEMENT_3D ( 'NONE', #216, #193, #173 ) ;
#197 = CIRCLE ( 'NONE', #118, 3.750000000000000000 ) ;
#198 = ORIENTED_EDGE ( 'NONE', *, *, #33, .T. ) ;
#199 = DIRECTION ( 'NONE',  ( -0.000000000000000000, -0.000000000000000000, -1.000000000000000000 ) ) ;
#200 = ADVANCED_FACE ( 'NONE', ( #130 ), #43, .F. ) ;
#201 = CARTESIAN_POINT ( 'NONE',  ( 0.000000000000000000, 0.000000000000000000, 635.0000000000000000 ) ) ;
#202 = AXIS2_PLACEMENT_3D ( 'NONE', #41, #252, #17 ) ;
#203 = DIRECTION ( 'NONE',  ( -0.000000000000000000, -0.000000000000000000, -1.000000000000000000 ) ) ;
#204 = CYLINDRICAL_SURFACE ( 'NONE', #295, 3.750000000000000000 ) ;
#205 = FACE_OUTER_BOUND ( 'NONE', #142, .T. ) ;
#206 = DIRECTION ( 'NONE',  ( -1.000000000000000000, 0.000000000000000000, 0.000000000000000000 ) ) ;
#207 = CC_DESIGN_SECURITY_CLASSIFICATION ( #79, ( #243 ) ) ;
#208 = CALENDAR_DATE ( 2022, 7, 7 ) ;
#209 = EDGE_CURVE ( 'NONE', #170, #68, #242, .T. ) ;
#210 = APPROVAL_DATE_TIME ( #5, #249 ) ;
#211 = CALENDAR_DATE ( 2022, 7, 7 ) ;
#212 = PERSON_AND_ORGANIZATION ( #136, #215 ) ;
#213 = ORIENTED_EDGE ( 'NONE', *, *, #293, .T. ) ;
#214 = APPROVAL_STATUS ( 'not_yet_approved' ) ;
#215 = ORGANIZATION ( 'NEURÈENÝ', 'NEURÈENÝ', '' ) ;
#216 = CARTESIAN_POINT ( 'NONE',  ( 3.949999999999999734, 0.000000000000000000, 5.199999999999982414 ) ) ;
#217 = CARTESIAN_POINT ( 'NONE',  ( 3.949999999999999734, 0.000000000000000000, 4.999999999999991118 ) ) ;
#218 = DIRECTION ( 'NONE',  ( 0.000000000000000000, 0.000000000000000000, 1.000000000000000000 ) ) ;
#219 = AXIS2_PLACEMENT_3D ( 'NONE', #157, #223, #271 ) ;
#220 = ADVANCED_FACE ( 'NONE', ( #155, #181 ), #63, .T. ) ;
#221 = ORIENTED_EDGE ( 'NONE', *, *, #129, .F. ) ;
#222 = ORIENTED_EDGE ( 'NONE', *, *, #137, .F. ) ;
#223 = DIRECTION ( 'NONE',  ( 0.000000000000000000, 0.000000000000000000, 1.000000000000000000 ) ) ;
#224 = CC_DESIGN_APPROVAL ( #24, ( #73 ) ) ;
#225 = CARTESIAN_POINT ( 'NONE',  ( 0.000000000000000000, 0.000000000000000000, 635.0000000000000000 ) ) ;
#226 = CC_DESIGN_PERSON_AND_ORGANIZATION_ASSIGNMENT ( #86, #286, ( #243 ) ) ;
#227 = DIRECTION ( 'NONE',  ( -1.000000000000000000, 0.000000000000000000, 0.000000000000000000 ) ) ;
#228 = DIRECTION ( 'NONE',  ( 0.000000000000000000, 0.000000000000000000, 1.000000000000000000 ) ) ;
#229 = ADVANCED_FACE ( 'NONE', ( #152 ), #101, .F. ) ;
#230 = CARTESIAN_POINT ( 'NONE',  ( 0.000000000000000000, 0.000000000000000000, 5.000000000000000000 ) ) ;
#231 = UNCERTAINTY_MEASURE_WITH_UNIT (LENGTH_MEASURE( 1.000000000000000082E-05 ), #162, 'distance_accuracy_value', 'NONE');
#232 = VERTEX_POINT ( 'NONE', #83 ) ;
#233 = APPROVAL_STATUS ( 'not_yet_approved' ) ;
#234 = COORDINATED_UNIVERSAL_TIME_OFFSET ( 1, 0, .AHEAD. ) ;
#235 = CIRCLE ( 'NONE', #219, 3.750000000000000000 ) ;
#236 = APPLICATION_PROTOCOL_DEFINITION ( 'international standard', 'config_control_design', 1994, #290 ) ;
#237 = ORIENTED_EDGE ( 'NONE', *, *, #115, .T. ) ;
#238 = ORIENTED_EDGE ( 'NONE', *, *, #275, .T. ) ;
#239 = ADVANCED_FACE ( 'NONE', ( #128 ), #127, .T. ) ;
#240 = ORIENTED_EDGE ( 'NONE', *, *, #53, .T. ) ;
#241 = AXIS2_PLACEMENT_3D ( 'NONE', #156, #153, #250 ) ;
#242 = CIRCLE ( 'NONE', #103, 6.000000000000000888 ) ;
#243 = PRODUCT_DEFINITION_FORMATION_WITH_SPECIFIED_SOURCE ( 'LIBOVOLNÝ', '', #277, .NOT_KNOWN. ) ;
#244 = ORIENTED_EDGE ( 'NONE', *, *, #284, .F. ) ;
#245 = ORIENTED_EDGE ( 'NONE', *, *, #293, .F. ) ;
#246 = VECTOR ( 'NONE', #266, 1000.000000000000000 ) ;
#247 = DIRECTION ( 'NONE',  ( 1.000000000000000000, 0.000000000000000000, 0.000000000000000000 ) ) ;
#248 = CARTESIAN_POINT ( 'NONE',  ( -3.949999999999999734, 4.837354856632044071E-16, 4.999999999999991118 ) ) ;
#249 = APPROVAL ( #214, 'NEURÈENÝ' ) ;
#250 = DIRECTION ( 'NONE',  ( 1.000000000000000000, 0.000000000000000000, -0.000000000000000000 ) ) ;
#251 = DIRECTION ( 'NONE',  ( -0.000000000000000000, -0.000000000000000000, -1.000000000000000000 ) ) ;
#252 = DIRECTION ( 'NONE',  ( 0.000000000000000000, 0.000000000000000000, 1.000000000000000000 ) ) ;
#253 = AXIS2_PLACEMENT_3D ( 'NONE', #195, #34, #146 ) ;
#254 = DATE_AND_TIME ( #168, #300 ) ;
#255 = DESIGN_CONTEXT ( 'detailed design', #290, 'design' ) ;
#256 = APPLICATION_PROTOCOL_DEFINITION ( 'international standard', 'config_control_design', 1994, #159 ) ;
#257 = PERSON_AND_ORGANIZATION_ROLE ( 'design_owner' ) ;
#258 = VERTEX_POINT ( 'NONE', #18 ) ;
#259 = APPROVAL_PERSON_ORGANIZATION ( #135, #62, #25 ) ;
#260 = MECHANICAL_CONTEXT ( 'NONE', #159, 'mechanical' ) ;
#261 = DIRECTION ( 'NONE',  ( -1.000000000000000000, 0.000000000000000000, 0.000000000000000000 ) ) ;
#262 = VERTEX_POINT ( 'NONE', #40 ) ;
#263 = AXIS2_PLACEMENT_3D ( 'NONE', #269, #203, #206 ) ;
#264 = LINE ( 'NONE', #77, #267 ) ;
#265 = ORIENTED_EDGE ( 'NONE', *, *, #209, .F. ) ;
#266 = DIRECTION ( 'NONE',  ( -0.000000000000000000, -0.000000000000000000, -1.000000000000000000 ) ) ;
#267 = VECTOR ( 'NONE', #119, 1000.000000000000000 ) ;
#268 = LOCAL_TIME ( 12, 4, 29.00000000000000000, #22 ) ;
#269 = CARTESIAN_POINT ( 'NONE',  ( 0.000000000000000000, 0.000000000000000000, 5.000000000000000000 ) ) ;
#270 = CC_DESIGN_PERSON_AND_ORGANIZATION_ASSIGNMENT ( #187, #48, ( #73 ) ) ;
#271 = DIRECTION ( 'NONE',  ( 1.000000000000000000, 0.000000000000000000, 0.000000000000000000 ) ) ;
#272 = DIRECTION ( 'NONE',  ( -1.000000000000000000, 0.000000000000000000, 0.000000000000000000 ) ) ;
#273 = AXIS2_PLACEMENT_3D ( 'NONE', #201, #304, #177 ) ;
#274 = CARTESIAN_POINT ( 'NONE',  ( 0.000000000000000000, 0.000000000000000000, 0.000000000000000000 ) ) ;
#275 = EDGE_CURVE ( 'NONE', #3, #190, #171, .T. ) ;
#276 = DIRECTION ( 'NONE',  ( 1.000000000000000000, 0.000000000000000000, 0.000000000000000000 ) ) ;
#277 = PRODUCT ( '585a', '585a', '', ( #260 ) ) ;
#278 = VERTEX_POINT ( 'NONE', #20 ) ;
#279 = ADVANCED_BREP_SHAPE_REPRESENTATION ( '585a', ( #32, #144 ), #167 ) ;
#280 = AXIS2_PLACEMENT_3D ( 'NONE', #298, #125, #276 ) ;
#281 = LOCAL_TIME ( 12, 4, 29.00000000000000000, #164 ) ;
#282 = LOCAL_TIME ( 12, 4, 29.00000000000000000, #110 ) ;
#283 = VERTEX_POINT ( 'NONE', #102 ) ;
#284 = EDGE_CURVE ( 'NONE', #262, #232, #235, .T. ) ;
#285 = PERSON_AND_ORGANIZATION ( #136, #215 ) ;
#286 = PERSON_AND_ORGANIZATION_ROLE ( 'design_supplier' ) ;
#287 = VECTOR ( 'NONE', #150, 1000.000000000000000 ) ;
#288 = EDGE_LOOP ( 'NONE', ( #23, #265, #124, #35 ) ) ;
#289 = ORIENTED_EDGE ( 'NONE', *, *, #284, .T. ) ;
#290 = APPLICATION_CONTEXT ( 'configuration controlled 3d designs of mechanical parts and assemblies' ) ;
#291 = APPROVAL_DATE_TIME ( #2, #62 ) ;
#292 = DIRECTION ( 'NONE',  ( 1.000000000000000000, 0.000000000000000000, 0.000000000000000000 ) ) ;
#293 = EDGE_CURVE ( 'NONE', #72, #258, #197, .T. ) ;
#294 = CARTESIAN_POINT ( 'NONE',  ( 0.000000000000000000, 0.000000000000000000, 5.000000000000000000 ) ) ;
#295 = AXIS2_PLACEMENT_3D ( 'NONE', #302, #179, #272 ) ;
#296 = LINE ( 'NONE', #57, #287 ) ;
#297 = CYLINDRICAL_SURFACE ( 'NONE', #58, 6.000000000000000888 ) ;
#298 = CARTESIAN_POINT ( 'NONE',  ( 0.000000000000000000, 0.000000000000000000, 5.199999999999982414 ) ) ;
#299 = AXIS2_PLACEMENT_3D ( 'NONE', #13, #174, #78 ) ;
#300 = LOCAL_TIME ( 12, 4, 29.00000000000000000, #28 ) ;
#301 = CARTESIAN_POINT ( 'NONE',  ( 0.000000000000000000, 0.000000000000000000, 5.199999999999982414 ) ) ;
#302 = CARTESIAN_POINT ( 'NONE',  ( 0.000000000000000000, 0.000000000000000000, 635.0000000000000000 ) ) ;
#303 = ADVANCED_FACE ( 'NONE', ( #82 ), #204, .T. ) ;
#304 = DIRECTION ( 'NONE',  ( 0.000000000000000000, 0.000000000000000000, 1.000000000000000000 ) ) ;
#305 = APPROVAL_PERSON_ORGANIZATION ( #114, #249, #140 ) ;
#306 = CARTESIAN_POINT ( 'NONE',  ( 0.000000000000000000, 0.000000000000000000, 5.199999999999982414 ) ) ;
#307 = PERSON_AND_ORGANIZATION ( #136, #215 ) ;
ENDSEC;
END-ISO-10303-21;
