ISO-10303-21;
HEADER;
FILE_DESCRIPTION (( 'STEP AP203' ),
    '1' );
FILE_NAME ('d637.STEP',
    '2022-07-07T09:32:01',
    ( '' ),
    ( '' ),
    'SwSTEP 2.0',
    'SolidWorks 2019',
    '' );
FILE_SCHEMA (( 'CONFIG_CONTROL_DESIGN' ));
ENDSEC;

DATA;
#1 = TOROIDAL_SURFACE ( 'NONE', #269, 12.70000000000000107, 0.2000000000000000111 ) ;
#2 = CARTESIAN_POINT ( 'NONE',  ( -12.70000000000000107, 1.555301434917138630E-15, 9.999999999999992895 ) ) ;
#3 = FACE_OUTER_BOUND ( 'NONE', #18, .T. ) ;
#4 = ORIENTED_EDGE ( 'NONE', *, *, #193, .F. ) ;
#5 = EDGE_LOOP ( 'NONE', ( #22, #84, #141, #240 ) ) ;
#6 = APPROVAL_PERSON_ORGANIZATION ( #210, #155, #306 ) ;
#7 = DIRECTION ( 'NONE',  ( -0.000000000000000000, -0.000000000000000000, -1.000000000000000000 ) ) ;
#8 = EDGE_CURVE ( 'NONE', #258, #87, #220, .T. ) ;
#9 = CARTESIAN_POINT ( 'NONE',  ( 12.70000000000000107, 0.000000000000000000, 10.19999999999998685 ) ) ;
#10 = DIRECTION ( 'NONE',  ( -1.000000000000000000, 0.000000000000000000, 0.000000000000000000 ) ) ;
#11 = CIRCLE ( 'NONE', #146, 12.50000000000000000 ) ;
#12 = DIRECTION ( 'NONE',  ( 0.000000000000000000, 0.000000000000000000, 1.000000000000000000 ) ) ;
#13 = CARTESIAN_POINT ( 'NONE',  ( -16.00000000000000000, 0.000000000000000000, 0.000000000000000000 ) ) ;
#14 = AXIS2_PLACEMENT_3D ( 'NONE', #165, #259, #96 ) ;
#15 = ADVANCED_FACE ( 'NONE', ( #189 ), #1, .F. ) ;
#16 = CIRCLE ( 'NONE', #21, 12.70000000000000107 ) ;
#17 = DIRECTION ( 'NONE',  ( 0.000000000000000000, 0.000000000000000000, 1.000000000000000000 ) ) ;
#18 = EDGE_LOOP ( 'NONE', ( #160, #307, #191, #40 ) ) ;
#19 = ORIENTED_EDGE ( 'NONE', *, *, #25, .T. ) ;
#20 = PERSON_AND_ORGANIZATION_ROLE ( 'design_owner' ) ;
#21 = AXIS2_PLACEMENT_3D ( 'NONE', #249, #226, #119 ) ;
#22 = ORIENTED_EDGE ( 'NONE', *, *, #235, .F. ) ;
#23 = ORIENTED_EDGE ( 'NONE', *, *, #8, .T. ) ;
#24 = ORIENTED_EDGE ( 'NONE', *, *, #86, .T. ) ;
#25 = EDGE_CURVE ( 'NONE', #185, #188, #275, .T. ) ;
#26 = PLANE ( 'NONE',  #91 ) ;
#27 = CC_DESIGN_APPROVAL ( #155, ( #57 ) ) ;
#28 = FACE_OUTER_BOUND ( 'NONE', #111, .T. ) ;
#29 = EDGE_LOOP ( 'NONE', ( #19, #94 ) ) ;
#30 = CLOSED_SHELL ( 'NONE', ( #15, #139, #110, #76, #274, #39, #201, #82, #143 ) ) ;
#31 = CARTESIAN_POINT ( 'NONE',  ( -12.50000000000000000, 0.000000000000000000, 210.0000000000000284 ) ) ;
#32 = DIRECTION ( 'NONE',  ( 1.000000000000000000, 0.000000000000000000, 0.000000000000000000 ) ) ;
#33 = CARTESIAN_POINT ( 'NONE',  ( 12.50000000000000000, 1.530808498934191521E-15, 210.0000000000000284 ) ) ;
#34 = DIRECTION ( 'NONE',  ( -1.000000000000000000, 0.000000000000000000, 0.000000000000000000 ) ) ;
#35 = CIRCLE ( 'NONE', #215, 0.2000000000000005107 ) ;
#36 = DIRECTION ( 'NONE',  ( -0.000000000000000000, -0.000000000000000000, -1.000000000000000000 ) ) ;
#37 = DIRECTION ( 'NONE',  ( 1.224646799147353207E-16, 1.000000000000000000, -0.000000000000000000 ) ) ;
#38 = COORDINATED_UNIVERSAL_TIME_OFFSET ( 1, 0, .AHEAD. ) ;
#39 = ADVANCED_FACE ( 'NONE', ( #28 ), #167, .F. ) ;
#40 = ORIENTED_EDGE ( 'NONE', *, *, #8, .F. ) ;
#41 = CIRCLE ( 'NONE', #72, 12.70000000000000107 ) ;
#42 = DATE_TIME_ROLE ( 'classification_date' ) ;
#43 = VERTEX_POINT ( 'NONE', #142 ) ;
#44 = DIRECTION ( 'NONE',  ( 1.000000000000000000, 0.000000000000000000, 0.000000000000000000 ) ) ;
#45 = EDGE_LOOP ( 'NONE', ( #66, #24 ) ) ;
#46 = CALENDAR_DATE ( 2022, 7, 7 ) ;
#47 = VERTEX_POINT ( 'NONE', #243 ) ;
#48 = APPROVAL_ROLE ( '' ) ;
#49 = DIRECTION ( 'NONE',  ( -0.000000000000000000, -0.000000000000000000, -1.000000000000000000 ) ) ;
#50 = CARTESIAN_POINT ( 'NONE',  ( -16.00000000000000000, 0.000000000000000000, 10.00000000000000000 ) ) ;
#51 = CIRCLE ( 'NONE', #303, 12.50000000000000000 ) ;
#52 = DIRECTION ( 'NONE',  ( 1.000000000000000000, 0.000000000000000000, 0.000000000000000000 ) ) ;
#53 = DIRECTION ( 'NONE',  ( 1.000000000000000000, 0.000000000000000000, 0.000000000000000000 ) ) ;
#54 = DIRECTION ( 'NONE',  ( 0.000000000000000000, 0.000000000000000000, 1.000000000000000000 ) ) ;
#55 = CIRCLE ( 'NONE', #121, 16.00000000000000000 ) ;
#56 = FACE_BOUND ( 'NONE', #277, .T. ) ;
#57 = PRODUCT_DEFINITION_FORMATION_WITH_SPECIFIED_SOURCE ( 'LIBOVOLNÝ', '', #154, .NOT_KNOWN. ) ;
#58 = DIRECTION ( 'NONE',  ( 1.000000000000000000, 0.000000000000000000, 0.000000000000000000 ) ) ;
#59 = FACE_OUTER_BOUND ( 'NONE', #144, .T. ) ;
#60 = AXIS2_PLACEMENT_3D ( 'NONE', #176, #149, #78 ) ;
#61 = APPROVAL_PERSON_ORGANIZATION ( #256, #213, #48 ) ;
#62 = DIRECTION ( 'NONE',  ( -0.000000000000000000, -0.000000000000000000, -1.000000000000000000 ) ) ;
#63 = ORIENTED_EDGE ( 'NONE', *, *, #270, .T. ) ;
#64 = PERSON_AND_ORGANIZATION_ROLE ( 'creator' ) ;
#65 = APPROVAL_STATUS ( 'not_yet_approved' ) ;
#66 = ORIENTED_EDGE ( 'NONE', *, *, #288, .T. ) ;
#67 = AXIS2_PLACEMENT_3D ( 'NONE', #283, #261, #263 ) ;
#68 = APPROVAL ( #65, 'NEURÈENÝ' ) ;
#69 = ORIENTED_EDGE ( 'NONE', *, *, #270, .F. ) ;
#70 = CARTESIAN_POINT ( 'NONE',  ( 0.000000000000000000, 0.000000000000000000, 10.00000000000000000 ) ) ;
#71 = CARTESIAN_POINT ( 'NONE',  ( 0.000000000000000000, 0.000000000000000000, 10.19999999999998685 ) ) ;
#72 = AXIS2_PLACEMENT_3D ( 'NONE', #101, #197, #148 ) ;
#73 = ORIENTED_EDGE ( 'NONE', *, *, #173, .T. ) ;
#74 = CARTESIAN_POINT ( 'NONE',  ( 0.000000000000000000, 0.000000000000000000, 10.00000000000000000 ) ) ;
#75 = FACE_OUTER_BOUND ( 'NONE', #228, .T. ) ;
#76 = ADVANCED_FACE ( 'NONE', ( #242 ), #214, .T. ) ;
#77 =( LENGTH_UNIT ( ) NAMED_UNIT ( * ) SI_UNIT ( .MILLI., .METRE. ) );
#78 = DIRECTION ( 'NONE',  ( 1.000000000000000000, 0.000000000000000000, 0.000000000000000000 ) ) ;
#79 = LINE ( 'NONE', #195, #257 ) ;
#80 = CARTESIAN_POINT ( 'NONE',  ( 16.00000000000000000, 1.959434878635765131E-15, 0.000000000000000000 ) ) ;
#81 = ORGANIZATION ( 'NEURÈENÝ', 'NEURÈENÝ', '' ) ;
#82 = ADVANCED_FACE ( 'NONE', ( #115 ), #26, .T. ) ;
#83 = COORDINATED_UNIVERSAL_TIME_OFFSET ( 1, 0, .AHEAD. ) ;
#84 = ORIENTED_EDGE ( 'NONE', *, *, #25, .F. ) ;
#85 = APPROVAL_STATUS ( 'not_yet_approved' ) ;
#86 = EDGE_CURVE ( 'NONE', #207, #258, #102, .T. ) ;
#87 = VERTEX_POINT ( 'NONE', #137 ) ;
#88 =( NAMED_UNIT ( * ) SI_UNIT ( $, .STERADIAN. ) SOLID_ANGLE_UNIT ( ) );
#89 = PERSON_AND_ORGANIZATION_ROLE ( 'design_supplier' ) ;
#90 = EDGE_LOOP ( 'NONE', ( #298, #205, #237, #282 ) ) ;
#91 = AXIS2_PLACEMENT_3D ( 'NONE', #118, #163, #222 ) ;
#92 = FACE_OUTER_BOUND ( 'NONE', #286, .T. ) ;
#93 = ORIENTED_EDGE ( 'NONE', *, *, #219, .F. ) ;
#94 = ORIENTED_EDGE ( 'NONE', *, *, #219, .T. ) ;
#95 = CC_DESIGN_APPROVAL ( #68, ( #117 ) ) ;
#96 = DIRECTION ( 'NONE',  ( 1.000000000000000000, 0.000000000000000000, 0.000000000000000000 ) ) ;
#97 = EDGE_CURVE ( 'NONE', #157, #285, #55, .T. ) ;
#98 = DIRECTION ( 'NONE',  ( 0.000000000000000000, 0.000000000000000000, -1.000000000000000000 ) ) ;
#99 = CARTESIAN_POINT ( 'NONE',  ( 0.000000000000000000, 0.000000000000000000, 10.19999999999998685 ) ) ;
#100 = CARTESIAN_POINT ( 'NONE',  ( 0.000000000000000000, 0.000000000000000000, 10.00000000000000000 ) ) ;
#101 = CARTESIAN_POINT ( 'NONE',  ( 0.000000000000000000, 0.000000000000000000, 10.00000000000000000 ) ) ;
#102 = CIRCLE ( 'NONE', #14, 12.50000000000000000 ) ;
#103 = PERSON_AND_ORGANIZATION ( #203, #81 ) ;
#104 = CALENDAR_DATE ( 2022, 7, 7 ) ;
#105 = AXIS2_PLACEMENT_3D ( 'NONE', #271, #36, #10 ) ;
#106 = CIRCLE ( 'NONE', #60, 16.00000000000000000 ) ;
#107 = DATE_AND_TIME ( #46, #248 ) ;
#108 = ORIENTED_EDGE ( 'NONE', *, *, #288, .F. ) ;
#109 = VERTEX_POINT ( 'NONE', #2 ) ;
#110 = ADVANCED_FACE ( 'NONE', ( #92 ), #112, .T. ) ;
#111 = EDGE_LOOP ( 'NONE', ( #133, #69 ) ) ;
#112 = CYLINDRICAL_SURFACE ( 'NONE', #302, 16.00000000000000000 ) ;
#113 = EDGE_CURVE ( 'NONE', #185, #157, #260, .T. ) ;
#114 = DIRECTION ( 'NONE',  ( -1.000000000000000000, 0.000000000000000000, 0.000000000000000000 ) ) ;
#115 = FACE_OUTER_BOUND ( 'NONE', #45, .T. ) ;
#116 = AXIS2_PLACEMENT_3D ( 'NONE', #246, #62, #34 ) ;
#117 = PRODUCT_DEFINITION ( 'NEZNÁMÝ', '', #57, #175 ) ;
#118 = CARTESIAN_POINT ( 'NONE',  ( 0.000000000000000000, 0.000000000000000000, 210.0000000000000284 ) ) ;
#119 = DIRECTION ( 'NONE',  ( 1.000000000000000000, 0.000000000000000000, 0.000000000000000000 ) ) ;
#120 = PLANE ( 'NONE',  #169 ) ;
#121 = AXIS2_PLACEMENT_3D ( 'NONE', #236, #187, #218 ) ;
#122 = DIRECTION ( 'NONE',  ( 0.000000000000000000, 0.000000000000000000, 1.000000000000000000 ) ) ;
#123 = AXIS2_PLACEMENT_3D ( 'NONE', #99, #227, #58 ) ;
#124 = CC_DESIGN_PERSON_AND_ORGANIZATION_ASSIGNMENT ( #184, #299, ( #194 ) ) ;
#125 = DIRECTION ( 'NONE',  ( -0.000000000000000000, -0.000000000000000000, -1.000000000000000000 ) ) ;
#126 = PRODUCT_DEFINITION_SHAPE ( 'NONE', 'NONE',  #117 ) ;
#127 = FACE_OUTER_BOUND ( 'NONE', #29, .T. ) ;
#128 = SECURITY_CLASSIFICATION_LEVEL ( 'unclassified' ) ;
#129 = ORIENTED_EDGE ( 'NONE', *, *, #198, .F. ) ;
#130 = AXIS2_PLACEMENT_3D ( 'NONE', #153, #245, #168 ) ;
#131 = CC_DESIGN_DATE_AND_TIME_ASSIGNMENT ( #161, #42, ( #194 ) ) ;
#132 = COORDINATED_UNIVERSAL_TIME_OFFSET ( 1, 0, .AHEAD. ) ;
#133 = ORIENTED_EDGE ( 'NONE', *, *, #97, .F. ) ;
#134 = APPROVAL_STATUS ( 'not_yet_approved' ) ;
#135 = ORIENTED_EDGE ( 'NONE', *, *, #284, .T. ) ;
#136 = SHAPE_DEFINITION_REPRESENTATION ( #126, #280 ) ;
#137 = CARTESIAN_POINT ( 'NONE',  ( -12.50000000000000000, 0.000000000000000000, 10.19999999999998685 ) ) ;
#138 = DIRECTION ( 'NONE',  ( -0.000000000000000000, -0.000000000000000000, -1.000000000000000000 ) ) ;
#139 = ADVANCED_FACE ( 'NONE', ( #3 ), #224, .T. ) ;
#140 = CIRCLE ( 'NONE', #281, 0.2000000000000005107 ) ;
#141 = ORIENTED_EDGE ( 'NONE', *, *, #113, .T. ) ;
#142 = CARTESIAN_POINT ( 'NONE',  ( 12.50000000000000000, 1.530808498934191521E-15, 10.19999999999998685 ) ) ;
#143 = ADVANCED_FACE ( 'NONE', ( #59 ), #247, .F. ) ;
#144 = EDGE_LOOP ( 'NONE', ( #182, #129, #230, #264 ) ) ;
#145 = AXIS2_PLACEMENT_3D ( 'NONE', #166, #287, #53 ) ;
#146 = AXIS2_PLACEMENT_3D ( 'NONE', #294, #244, #32 ) ;
#147 = LOCAL_TIME ( 11, 32, 1.000000000000000000, #272 ) ;
#148 = DIRECTION ( 'NONE',  ( 1.000000000000000000, 0.000000000000000000, 0.000000000000000000 ) ) ;
#149 = DIRECTION ( 'NONE',  ( 0.000000000000000000, 0.000000000000000000, 1.000000000000000000 ) ) ;
#150 = CARTESIAN_POINT ( 'NONE',  ( 16.00000000000000000, 1.959434878635765131E-15, 10.00000000000000000 ) ) ;
#151 = DIRECTION ( 'NONE',  ( -1.000000000000000000, 1.224646799147353207E-16, 0.000000000000000000 ) ) ;
#152 = LOCAL_TIME ( 11, 32, 1.000000000000000000, #132 ) ;
#153 = CARTESIAN_POINT ( 'NONE',  ( 0.000000000000000000, 0.000000000000000000, 0.000000000000000000 ) ) ;
#154 = PRODUCT ( 'd637', 'd637', '', ( #229 ) ) ;
#155 = APPROVAL ( #134, 'NEURÈENÝ' ) ;
#156 = APPROVAL_ROLE ( '' ) ;
#157 = VERTEX_POINT ( 'NONE', #13 ) ;
#158 = APPLICATION_CONTEXT ( 'configuration controlled 3d designs of mechanical parts and assemblies' ) ;
#159 = APPLICATION_PROTOCOL_DEFINITION ( 'international standard', 'config_control_design', 1994, #158 ) ;
#160 = ORIENTED_EDGE ( 'NONE', *, *, #86, .F. ) ;
#161 = DATE_AND_TIME ( #278, #162 ) ;
#162 = LOCAL_TIME ( 11, 32, 1.000000000000000000, #297 ) ;
#163 = DIRECTION ( 'NONE',  ( 0.000000000000000000, 0.000000000000000000, 1.000000000000000000 ) ) ;
#164 = DIRECTION ( 'NONE',  ( -1.000000000000000000, 0.000000000000000000, 0.000000000000000000 ) ) ;
#165 = CARTESIAN_POINT ( 'NONE',  ( 0.000000000000000000, 0.000000000000000000, 210.0000000000000284 ) ) ;
#166 = CARTESIAN_POINT ( 'NONE',  ( 0.000000000000000000, 0.000000000000000000, 10.00000000000000000 ) ) ;
#167 = PLANE ( 'NONE',  #67 ) ;
#168 = DIRECTION ( 'NONE',  ( 1.000000000000000000, 0.000000000000000000, 0.000000000000000000 ) ) ;
#169 = AXIS2_PLACEMENT_3D ( 'NONE', #100, #12, #292 ) ;
#170 = CC_DESIGN_SECURITY_CLASSIFICATION ( #194, ( #57 ) ) ;
#171 = APPLICATION_CONTEXT ( 'configuration controlled 3d designs of mechanical parts and assemblies' ) ;
#172 = CARTESIAN_POINT ( 'NONE',  ( -12.50000000000000000, 0.000000000000000000, 210.0000000000000284 ) ) ;
#173 = EDGE_CURVE ( 'NONE', #47, #109, #16, .T. ) ;
#174 = CYLINDRICAL_SURFACE ( 'NONE', #116, 12.50000000000000000 ) ;
#175 = DESIGN_CONTEXT ( 'detailed design', #171, 'design' ) ;
#176 = CARTESIAN_POINT ( 'NONE',  ( 0.000000000000000000, 0.000000000000000000, 10.00000000000000000 ) ) ;
#177 = CC_DESIGN_PERSON_AND_ORGANIZATION_ASSIGNMENT ( #273, #20, ( #154 ) ) ;
#178 = APPROVAL_DATE_TIME ( #206, #155 ) ;
#179 = CALENDAR_DATE ( 2022, 7, 7 ) ;
#180 = ORIENTED_EDGE ( 'NONE', *, *, #235, .T. ) ;
#181 = CALENDAR_DATE ( 2022, 7, 7 ) ;
#182 = ORIENTED_EDGE ( 'NONE', *, *, #253, .F. ) ;
#183 = PERSON_AND_ORGANIZATION ( #203, #81 ) ;
#184 = PERSON_AND_ORGANIZATION ( #203, #81 ) ;
#185 = VERTEX_POINT ( 'NONE', #192 ) ;
#186 = VECTOR ( 'NONE', #49, 1000.000000000000000 ) ;
#187 = DIRECTION ( 'NONE',  ( 0.000000000000000000, 0.000000000000000000, 1.000000000000000000 ) ) ;
#188 = VERTEX_POINT ( 'NONE', #150 ) ;
#189 = FACE_OUTER_BOUND ( 'NONE', #90, .T. ) ;
#190 = CIRCLE ( 'NONE', #262, 12.50000000000000000 ) ;
#191 = ORIENTED_EDGE ( 'NONE', *, *, #198, .T. ) ;
#192 = CARTESIAN_POINT ( 'NONE',  ( -16.00000000000000000, 0.000000000000000000, 10.00000000000000000 ) ) ;
#193 = EDGE_CURVE ( 'NONE', #207, #43, #79, .T. ) ;
#194 = SECURITY_CLASSIFICATION ( '', '', #128 ) ;
#195 = CARTESIAN_POINT ( 'NONE',  ( 12.50000000000000000, 1.530808498934191521E-15, 210.0000000000000284 ) ) ;
#196 = CARTESIAN_POINT ( 'NONE',  ( 16.00000000000000000, 1.959434878635765131E-15, 10.00000000000000000 ) ) ;
#197 = DIRECTION ( 'NONE',  ( -0.000000000000000000, -0.000000000000000000, -1.000000000000000000 ) ) ;
#198 = EDGE_CURVE ( 'NONE', #43, #87, #190, .T. ) ;
#199 = UNCERTAINTY_MEASURE_WITH_UNIT (LENGTH_MEASURE( 1.000000000000000082E-05 ), #77, 'distance_accuracy_value', 'NONE');
#200 = CC_DESIGN_PERSON_AND_ORGANIZATION_ASSIGNMENT ( #183, #64, ( #57 ) ) ;
#201 = ADVANCED_FACE ( 'NONE', ( #75 ), #174, .T. ) ;
#202 = CARTESIAN_POINT ( 'NONE',  ( 0.000000000000000000, 0.000000000000000000, 0.000000000000000000 ) ) ;
#203 = PERSON ( 'NEURÈENÝ', 'NEURÈENÝ', 'NEURÈENÝ', ('NEURÈENÝ'), ('NEURÈENÝ'), ('NEURÈENÝ') ) ;
#204 = DATE_AND_TIME ( #104, #152 ) ;
#205 = ORIENTED_EDGE ( 'NONE', *, *, #253, .T. ) ;
#206 = DATE_AND_TIME ( #179, #216 ) ;
#207 = VERTEX_POINT ( 'NONE', #33 ) ;
#208 = AXIS2_PLACEMENT_3D ( 'NONE', #74, #7, #114 ) ;
#209 = PERSON_AND_ORGANIZATION ( #203, #81 ) ;
#210 = PERSON_AND_ORGANIZATION ( #203, #81 ) ;
#211 = ORIENTED_EDGE ( 'NONE', *, *, #113, .F. ) ;
#212 = CC_DESIGN_DATE_AND_TIME_ASSIGNMENT ( #107, #255, ( #117 ) ) ;
#213 = APPROVAL ( #85, 'NEURÈENÝ' ) ;
#214 = CYLINDRICAL_SURFACE ( 'NONE', #208, 16.00000000000000000 ) ;
#215 = AXIS2_PLACEMENT_3D ( 'NONE', #9, #225, #98 ) ;
#216 = LOCAL_TIME ( 11, 32, 1.000000000000000000, #38 ) ;
#217 = DIRECTION ( 'NONE',  ( -0.000000000000000000, -0.000000000000000000, -1.000000000000000000 ) ) ;
#218 = DIRECTION ( 'NONE',  ( 1.000000000000000000, 0.000000000000000000, 0.000000000000000000 ) ) ;
#219 = EDGE_CURVE ( 'NONE', #188, #185, #106, .T. ) ;
#220 = LINE ( 'NONE', #31, #186 ) ;
#221 = AXIS2_PLACEMENT_3D ( 'NONE', #202, #17, #44 ) ;
#222 = DIRECTION ( 'NONE',  ( 1.000000000000000000, 0.000000000000000000, -0.000000000000000000 ) ) ;
#223 = CARTESIAN_POINT ( 'NONE',  ( 0.000000000000000000, 0.000000000000000000, 210.0000000000000284 ) ) ;
#224 = CYLINDRICAL_SURFACE ( 'NONE', #105, 12.50000000000000000 ) ;
#225 = DIRECTION ( 'NONE',  ( 0.000000000000000000, -1.000000000000000000, 0.000000000000000000 ) ) ;
#226 = DIRECTION ( 'NONE',  ( -0.000000000000000000, -0.000000000000000000, -1.000000000000000000 ) ) ;
#227 = DIRECTION ( 'NONE',  ( 0.000000000000000000, 0.000000000000000000, 1.000000000000000000 ) ) ;
#228 = EDGE_LOOP ( 'NONE', ( #4, #108, #23, #135 ) ) ;
#229 = MECHANICAL_CONTEXT ( 'NONE', #158, 'mechanical' ) ;
#230 = ORIENTED_EDGE ( 'NONE', *, *, #293, .T. ) ;
#231 = PERSON_AND_ORGANIZATION_ROLE ( 'creator' ) ;
#232 = PERSON_AND_ORGANIZATION ( #203, #81 ) ;
#233 =( GEOMETRIC_REPRESENTATION_CONTEXT ( 3 ) GLOBAL_UNCERTAINTY_ASSIGNED_CONTEXT ( ( #199 ) ) GLOBAL_UNIT_ASSIGNED_CONTEXT ( ( #77, #304, #88 ) ) REPRESENTATION_CONTEXT ( 'NONE', 'WORKASPACE' ) );
#234 = APPROVAL_PERSON_ORGANIZATION ( #103, #68, #156 ) ;
#235 = EDGE_CURVE ( 'NONE', #188, #285, #250, .T. ) ;
#236 = CARTESIAN_POINT ( 'NONE',  ( 0.000000000000000000, 0.000000000000000000, 0.000000000000000000 ) ) ;
#237 = ORIENTED_EDGE ( 'NONE', *, *, #173, .F. ) ;
#238 = VECTOR ( 'NONE', #268, 1000.000000000000000 ) ;
#239 = CC_DESIGN_APPROVAL ( #213, ( #194 ) ) ;
#240 = ORIENTED_EDGE ( 'NONE', *, *, #97, .T. ) ;
#241 = CC_DESIGN_PERSON_AND_ORGANIZATION_ASSIGNMENT ( #209, #89, ( #57 ) ) ;
#242 = FACE_OUTER_BOUND ( 'NONE', #5, .T. ) ;
#243 = CARTESIAN_POINT ( 'NONE',  ( 12.70000000000000107, 0.000000000000000000, 9.999999999999992895 ) ) ;
#244 = DIRECTION ( 'NONE',  ( 0.000000000000000000, 0.000000000000000000, 1.000000000000000000 ) ) ;
#245 = DIRECTION ( 'NONE',  ( 0.000000000000000000, 0.000000000000000000, 1.000000000000000000 ) ) ;
#246 = CARTESIAN_POINT ( 'NONE',  ( 0.000000000000000000, 0.000000000000000000, 210.0000000000000284 ) ) ;
#247 = TOROIDAL_SURFACE ( 'NONE', #123, 12.70000000000000107, 0.2000000000000000111 ) ;
#248 = LOCAL_TIME ( 11, 32, 1.000000000000000000, #83 ) ;
#249 = CARTESIAN_POINT ( 'NONE',  ( 0.000000000000000000, 0.000000000000000000, 10.00000000000000000 ) ) ;
#250 = LINE ( 'NONE', #196, #238 ) ;
#251 = APPROVAL_DATE_TIME ( #204, #68 ) ;
#252 = VECTOR ( 'NONE', #138, 1000.000000000000000 ) ;
#253 = EDGE_CURVE ( 'NONE', #87, #109, #140, .T. ) ;
#254 = APPLICATION_PROTOCOL_DEFINITION ( 'international standard', 'config_control_design', 1994, #171 ) ;
#255 = DATE_TIME_ROLE ( 'creation_date' ) ;
#256 = PERSON_AND_ORGANIZATION ( #203, #81 ) ;
#257 = VECTOR ( 'NONE', #125, 1000.000000000000000 ) ;
#258 = VERTEX_POINT ( 'NONE', #172 ) ;
#259 = DIRECTION ( 'NONE',  ( 0.000000000000000000, 0.000000000000000000, 1.000000000000000000 ) ) ;
#260 = LINE ( 'NONE', #50, #252 ) ;
#261 = DIRECTION ( 'NONE',  ( 0.000000000000000000, 0.000000000000000000, 1.000000000000000000 ) ) ;
#262 = AXIS2_PLACEMENT_3D ( 'NONE', #290, #289, #291 ) ;
#263 = DIRECTION ( 'NONE',  ( 1.000000000000000000, 0.000000000000000000, -0.000000000000000000 ) ) ;
#264 = ORIENTED_EDGE ( 'NONE', *, *, #279, .F. ) ;
#265 = CC_DESIGN_PERSON_AND_ORGANIZATION_ASSIGNMENT ( #232, #231, ( #117 ) ) ;
#266 = CARTESIAN_POINT ( 'NONE',  ( -12.70000000000000107, 1.555301434917138630E-15, 10.19999999999998685 ) ) ;
#267 = DIRECTION ( 'NONE',  ( 1.000000000000000000, 0.000000000000000000, 0.000000000000000000 ) ) ;
#268 = DIRECTION ( 'NONE',  ( -0.000000000000000000, -0.000000000000000000, -1.000000000000000000 ) ) ;
#269 = AXIS2_PLACEMENT_3D ( 'NONE', #71, #54, #52 ) ;
#270 = EDGE_CURVE ( 'NONE', #285, #157, #295, .T. ) ;
#271 = CARTESIAN_POINT ( 'NONE',  ( 0.000000000000000000, 0.000000000000000000, 210.0000000000000284 ) ) ;
#272 = COORDINATED_UNIVERSAL_TIME_OFFSET ( 1, 0, .AHEAD. ) ;
#273 = PERSON_AND_ORGANIZATION ( #203, #81 ) ;
#274 = ADVANCED_FACE ( 'NONE', ( #56, #127 ), #120, .T. ) ;
#275 = CIRCLE ( 'NONE', #145, 16.00000000000000000 ) ;
#276 = DATE_AND_TIME ( #181, #147 ) ;
#277 = EDGE_LOOP ( 'NONE', ( #73, #300 ) ) ;
#278 = CALENDAR_DATE ( 2022, 7, 7 ) ;
#279 = EDGE_CURVE ( 'NONE', #109, #47, #41, .T. ) ;
#280 = ADVANCED_BREP_SHAPE_REPRESENTATION ( 'd637', ( #301, #221 ), #233 ) ;
#281 = AXIS2_PLACEMENT_3D ( 'NONE', #266, #37, #151 ) ;
#282 = ORIENTED_EDGE ( 'NONE', *, *, #293, .F. ) ;
#283 = CARTESIAN_POINT ( 'NONE',  ( 0.000000000000000000, 0.000000000000000000, 0.000000000000000000 ) ) ;
#284 = EDGE_CURVE ( 'NONE', #87, #43, #11, .T. ) ;
#285 = VERTEX_POINT ( 'NONE', #80 ) ;
#286 = EDGE_LOOP ( 'NONE', ( #93, #180, #63, #211 ) ) ;
#287 = DIRECTION ( 'NONE',  ( 0.000000000000000000, 0.000000000000000000, 1.000000000000000000 ) ) ;
#288 = EDGE_CURVE ( 'NONE', #258, #207, #51, .T. ) ;
#289 = DIRECTION ( 'NONE',  ( 0.000000000000000000, 0.000000000000000000, 1.000000000000000000 ) ) ;
#290 = CARTESIAN_POINT ( 'NONE',  ( 0.000000000000000000, 0.000000000000000000, 10.19999999999998685 ) ) ;
#291 = DIRECTION ( 'NONE',  ( 1.000000000000000000, 0.000000000000000000, 0.000000000000000000 ) ) ;
#292 = DIRECTION ( 'NONE',  ( 1.000000000000000000, 0.000000000000000000, -0.000000000000000000 ) ) ;
#293 = EDGE_CURVE ( 'NONE', #43, #47, #35, .T. ) ;
#294 = CARTESIAN_POINT ( 'NONE',  ( 0.000000000000000000, 0.000000000000000000, 10.19999999999998685 ) ) ;
#295 = CIRCLE ( 'NONE', #130, 16.00000000000000000 ) ;
#296 = APPROVAL_DATE_TIME ( #276, #213 ) ;
#297 = COORDINATED_UNIVERSAL_TIME_OFFSET ( 1, 0, .AHEAD. ) ;
#298 = ORIENTED_EDGE ( 'NONE', *, *, #284, .F. ) ;
#299 = PERSON_AND_ORGANIZATION_ROLE ( 'classification_officer' ) ;
#300 = ORIENTED_EDGE ( 'NONE', *, *, #279, .T. ) ;
#301 = MANIFOLD_SOLID_BREP ( 'Zaoblit1', #30 ) ;
#302 = AXIS2_PLACEMENT_3D ( 'NONE', #70, #217, #164 ) ;
#303 = AXIS2_PLACEMENT_3D ( 'NONE', #223, #122, #267 ) ;
#304 =( NAMED_UNIT ( * ) PLANE_ANGLE_UNIT ( ) SI_UNIT ( $, .RADIAN. ) );
#305 = PRODUCT_RELATED_PRODUCT_CATEGORY ( 'detail', '', ( #154 ) ) ;
#306 = APPROVAL_ROLE ( '' ) ;
#307 = ORIENTED_EDGE ( 'NONE', *, *, #193, .T. ) ;
ENDSEC;
END-ISO-10303-21;
