ISO-10303-21;
HEADER;
FILE_DESCRIPTION (( 'STEP AP203' ),
    '1' );
FILE_NAME ('baa1.STEP',
    '2023-02-12T12:26:38',
    ( '' ),
    ( '' ),
    'SwSTEP 2.0',
    'SolidWorks 2019',
    '' );
FILE_SCHEMA (( 'CONFIG_CONTROL_DESIGN' ));
ENDSEC;

DATA;
#1 = CARTESIAN_POINT ( 'NONE',  ( 5.000000000000000000, 6.123233995736766282E-16, 0.000000000000000000 ) ) ;
#2 = FACE_OUTER_BOUND ( 'NONE', #78, .T. ) ;
#3 = AXIS2_PLACEMENT_3D ( 'NONE', #168, #90, #211 ) ;
#4 = VERTEX_POINT ( 'NONE', #1 ) ;
#5 = CC_DESIGN_DATE_AND_TIME_ASSIGNMENT ( #58, #244, ( #73 ) ) ;
#6 = DIRECTION ( 'NONE',  ( -1.000000000000000000, 0.000000000000000000, 0.000000000000000000 ) ) ;
#7 = EDGE_CURVE ( 'NONE', #190, #22, #225, .T. ) ;
#8 = FACE_OUTER_BOUND ( 'NONE', #94, .T. ) ;
#9 = CIRCLE ( 'NONE', #3, 5.000000000000000000 ) ;
#10 = CALENDAR_DATE ( 2023, 12, 2 ) ;
#11 = AXIS2_PLACEMENT_3D ( 'NONE', #132, #24, #97 ) ;
#12 = EDGE_CURVE ( 'NONE', #22, #23, #112, .T. ) ;
#13 = PERSON_AND_ORGANIZATION_ROLE ( 'creator' ) ;
#14 = PERSON_AND_ORGANIZATION_ROLE ( 'design_supplier' ) ;
#15 = APPROVAL_STATUS ( 'not_yet_approved' ) ;
#16 = CARTESIAN_POINT ( 'NONE',  ( -2.600000000000000089, 0.000000000000000000, 630.0000000000000000 ) ) ;
#17 = DATE_AND_TIME ( #123, #122 ) ;
#18 = AXIS2_PLACEMENT_3D ( 'NONE', #182, #66, #27 ) ;
#19 = DIRECTION ( 'NONE',  ( -0.000000000000000000, -0.000000000000000000, -1.000000000000000000 ) ) ;
#20 = PERSON_AND_ORGANIZATION ( #53, #113 ) ;
#21 = ORIENTED_EDGE ( 'NONE', *, *, #214, .T. ) ;
#22 = VERTEX_POINT ( 'NONE', #16 ) ;
#23 = VERTEX_POINT ( 'NONE', #91 ) ;
#24 = DIRECTION ( 'NONE',  ( 0.000000000000000000, 0.000000000000000000, 1.000000000000000000 ) ) ;
#25 = ORIENTED_EDGE ( 'NONE', *, *, #248, .F. ) ;
#26 = DIRECTION ( 'NONE',  ( 1.000000000000000000, 0.000000000000000000, 0.000000000000000000 ) ) ;
#27 = DIRECTION ( 'NONE',  ( 1.000000000000000000, 0.000000000000000000, -0.000000000000000000 ) ) ;
#28 = PRODUCT_DEFINITION_SHAPE ( 'NONE', 'NONE',  #192 ) ;
#29 = AXIS2_PLACEMENT_3D ( 'NONE', #135, #154, #174 ) ;
#30 = DESIGN_CONTEXT ( 'detailed design', #148, 'design' ) ;
#31 = COORDINATED_UNIVERSAL_TIME_OFFSET ( 1, 0, .AHEAD. ) ;
#32 = DIRECTION ( 'NONE',  ( -0.000000000000000000, -0.000000000000000000, -1.000000000000000000 ) ) ;
#33 = APPROVAL_DATE_TIME ( #167, #243 ) ;
#34 = AXIS2_PLACEMENT_3D ( 'NONE', #128, #232, #169 ) ;
#35 = CARTESIAN_POINT ( 'NONE',  ( 5.000000000000000000, 6.123233995736766282E-16, 3.000000000000000000 ) ) ;
#36 = DIRECTION ( 'NONE',  ( 1.000000000000000000, 0.000000000000000000, 0.000000000000000000 ) ) ;
#37 = PRODUCT_DEFINITION_FORMATION_WITH_SPECIFIED_SOURCE ( 'LIBOVOLNÝ', '', #159, .NOT_KNOWN. ) ;
#38 = ORIENTED_EDGE ( 'NONE', *, *, #248, .T. ) ;
#39 = ORIENTED_EDGE ( 'NONE', *, *, #12, .F. ) ;
#40 = DIRECTION ( 'NONE',  ( -0.000000000000000000, -0.000000000000000000, -1.000000000000000000 ) ) ;
#41 = DIRECTION ( 'NONE',  ( 1.000000000000000000, 0.000000000000000000, 0.000000000000000000 ) ) ;
#42 = CIRCLE ( 'NONE', #241, 5.000000000000000000 ) ;
#43 = FACE_OUTER_BOUND ( 'NONE', #218, .T. ) ;
#44 = EDGE_CURVE ( 'NONE', #4, #76, #9, .T. ) ;
#45 = DIRECTION ( 'NONE',  ( 1.000000000000000000, 0.000000000000000000, 0.000000000000000000 ) ) ;
#46 = APPROVAL ( #209, 'NEURÈENÝ' ) ;
#47 = CC_DESIGN_APPROVAL ( #46, ( #37 ) ) ;
#48 = CARTESIAN_POINT ( 'NONE',  ( 5.000000000000000000, 6.123233995736766282E-16, 3.000000000000000000 ) ) ;
#49 = PERSON_AND_ORGANIZATION ( #53, #113 ) ;
#50 = CALENDAR_DATE ( 2023, 12, 2 ) ;
#51 = ORIENTED_EDGE ( 'NONE', *, *, #12, .T. ) ;
#52 = CIRCLE ( 'NONE', #86, 2.600000000000000089 ) ;
#53 = PERSON ( 'NEURÈENÝ', 'NEURÈENÝ', 'NEURÈENÝ', ('NEURÈENÝ'), ('NEURÈENÝ'), ('NEURÈENÝ') ) ;
#54 = CIRCLE ( 'NONE', #29, 2.600000000000000089 ) ;
#55 = ORIENTED_EDGE ( 'NONE', *, *, #44, .T. ) ;
#56 = PERSON_AND_ORGANIZATION_ROLE ( 'design_owner' ) ;
#57 = CC_DESIGN_APPROVAL ( #230, ( #73 ) ) ;
#58 = DATE_AND_TIME ( #215, #64 ) ;
#59 = CYLINDRICAL_SURFACE ( 'NONE', #233, 2.600000000000000089 ) ;
#60 = APPLICATION_PROTOCOL_DEFINITION ( 'international standard', 'config_control_design', 1994, #157 ) ;
#61 = ORIENTED_EDGE ( 'NONE', *, *, #156, .T. ) ;
#62 = DIRECTION ( 'NONE',  ( 0.000000000000000000, 0.000000000000000000, 1.000000000000000000 ) ) ;
#63 = AXIS2_PLACEMENT_3D ( 'NONE', #242, #158, #138 ) ;
#64 = LOCAL_TIME ( 13, 26, 38.00000000000000000, #252 ) ;
#65 = CYLINDRICAL_SURFACE ( 'NONE', #63, 2.600000000000000089 ) ;
#66 = DIRECTION ( 'NONE',  ( 0.000000000000000000, 0.000000000000000000, 1.000000000000000000 ) ) ;
#67 = ADVANCED_FACE ( 'NONE', ( #145 ), #187, .F. ) ;
#68 = EDGE_CURVE ( 'NONE', #75, #4, #110, .T. ) ;
#69 = APPROVAL_DATE_TIME ( #165, #46 ) ;
#70 = PERSON_AND_ORGANIZATION ( #53, #113 ) ;
#71 = PERSON_AND_ORGANIZATION ( #53, #113 ) ;
#72 = CARTESIAN_POINT ( 'NONE',  ( 0.000000000000000000, 0.000000000000000000, 3.000000000000000000 ) ) ;
#73 = SECURITY_CLASSIFICATION ( '', '', #170 ) ;
#74 = LINE ( 'NONE', #231, #185 ) ;
#75 = VERTEX_POINT ( 'NONE', #48 ) ;
#76 = VERTEX_POINT ( 'NONE', #246 ) ;
#77 = LINE ( 'NONE', #239, #201 ) ;
#78 = EDGE_LOOP ( 'NONE', ( #234, #93, #147, #39 ) ) ;
#79 = DIRECTION ( 'NONE',  ( -1.000000000000000000, 0.000000000000000000, 0.000000000000000000 ) ) ;
#80 = ORIENTED_EDGE ( 'NONE', *, *, #156, .F. ) ;
#81 = PLANE ( 'NONE',  #18 ) ;
#82 = AXIS2_PLACEMENT_3D ( 'NONE', #136, #220, #41 ) ;
#83 = CYLINDRICAL_SURFACE ( 'NONE', #130, 5.000000000000000000 ) ;
#84 = EDGE_CURVE ( 'NONE', #190, #254, #74, .T. ) ;
#85 = ADVANCED_FACE ( 'NONE', ( #249 ), #188, .T. ) ;
#86 = AXIS2_PLACEMENT_3D ( 'NONE', #72, #222, #203 ) ;
#87 = ADVANCED_BREP_SHAPE_REPRESENTATION ( 'baa1', ( #140, #82 ), #89 ) ;
#88 = APPROVAL_ROLE ( '' ) ;
#89 =( GEOMETRIC_REPRESENTATION_CONTEXT ( 3 ) GLOBAL_UNCERTAINTY_ASSIGNED_CONTEXT ( ( #164 ) ) GLOBAL_UNIT_ASSIGNED_CONTEXT ( ( #195, #96, #199 ) ) REPRESENTATION_CONTEXT ( 'NONE', 'WORKASPACE' ) );
#90 = DIRECTION ( 'NONE',  ( 0.000000000000000000, 0.000000000000000000, 1.000000000000000000 ) ) ;
#91 = CARTESIAN_POINT ( 'NONE',  ( -2.600000000000000089, 0.000000000000000000, 3.000000000000000000 ) ) ;
#92 = LOCAL_TIME ( 13, 26, 38.00000000000000000, #103 ) ;
#93 = ORIENTED_EDGE ( 'NONE', *, *, #84, .T. ) ;
#94 = EDGE_LOOP ( 'NONE', ( #25, #197, #55, #194 ) ) ;
#95 = CARTESIAN_POINT ( 'NONE',  ( 2.600000000000000089, 3.184081677783118191E-16, 630.0000000000000000 ) ) ;
#96 =( NAMED_UNIT ( * ) PLANE_ANGLE_UNIT ( ) SI_UNIT ( $, .RADIAN. ) );
#97 = DIRECTION ( 'NONE',  ( 1.000000000000000000, 0.000000000000000000, -0.000000000000000000 ) ) ;
#98 = VERTEX_POINT ( 'NONE', #106 ) ;
#99 = AXIS2_PLACEMENT_3D ( 'NONE', #100, #102, #180 ) ;
#100 = CARTESIAN_POINT ( 'NONE',  ( 0.000000000000000000, 0.000000000000000000, 3.000000000000000000 ) ) ;
#101 = CC_DESIGN_APPROVAL ( #243, ( #192 ) ) ;
#102 = DIRECTION ( 'NONE',  ( 0.000000000000000000, 0.000000000000000000, 1.000000000000000000 ) ) ;
#103 = COORDINATED_UNIVERSAL_TIME_OFFSET ( 1, 0, .AHEAD. ) ;
#104 = CC_DESIGN_PERSON_AND_ORGANIZATION_ASSIGNMENT ( #108, #13, ( #192 ) ) ;
#105 = VECTOR ( 'NONE', #19, 1000.000000000000000 ) ;
#106 = CARTESIAN_POINT ( 'NONE',  ( -5.000000000000000000, 0.000000000000000000, 3.000000000000000000 ) ) ;
#107 = APPROVAL_STATUS ( 'not_yet_approved' ) ;
#108 = PERSON_AND_ORGANIZATION ( #53, #113 ) ;
#109 = EDGE_CURVE ( 'NONE', #254, #23, #52, .T. ) ;
#110 = LINE ( 'NONE', #35, #212 ) ;
#111 = PERSON_AND_ORGANIZATION_ROLE ( 'creator' ) ;
#112 = LINE ( 'NONE', #172, #105 ) ;
#113 = ORGANIZATION ( 'NEURÈENÝ', 'NEURÈENÝ', '' ) ;
#114 = ORIENTED_EDGE ( 'NONE', *, *, #68, .F. ) ;
#115 = FACE_BOUND ( 'NONE', #238, .T. ) ;
#116 = EDGE_LOOP ( 'NONE', ( #80, #131 ) ) ;
#117 = DIRECTION ( 'NONE',  ( 0.000000000000000000, 0.000000000000000000, 1.000000000000000000 ) ) ;
#118 = CARTESIAN_POINT ( 'NONE',  ( 0.000000000000000000, 0.000000000000000000, 3.000000000000000000 ) ) ;
#119 = ADVANCED_FACE ( 'NONE', ( #204 ), #65, .T. ) ;
#120 = APPROVAL_DATE_TIME ( #121, #230 ) ;
#121 = DATE_AND_TIME ( #10, #221 ) ;
#122 = LOCAL_TIME ( 13, 26, 38.00000000000000000, #31 ) ;
#123 = CALENDAR_DATE ( 2023, 12, 2 ) ;
#124 = PRODUCT_RELATED_PRODUCT_CATEGORY ( 'detail', '', ( #159 ) ) ;
#125 = DIRECTION ( 'NONE',  ( -0.000000000000000000, -0.000000000000000000, -1.000000000000000000 ) ) ;
#126 = COORDINATED_UNIVERSAL_TIME_OFFSET ( 1, 0, .AHEAD. ) ;
#127 = ADVANCED_FACE ( 'NONE', ( #43 ), #81, .T. ) ;
#128 = CARTESIAN_POINT ( 'NONE',  ( 0.000000000000000000, 0.000000000000000000, 0.000000000000000000 ) ) ;
#129 = CARTESIAN_POINT ( 'NONE',  ( 0.000000000000000000, 0.000000000000000000, 630.0000000000000000 ) ) ;
#130 = AXIS2_PLACEMENT_3D ( 'NONE', #179, #240, #6 ) ;
#131 = ORIENTED_EDGE ( 'NONE', *, *, #44, .F. ) ;
#132 = CARTESIAN_POINT ( 'NONE',  ( 0.000000000000000000, 0.000000000000000000, 3.000000000000000000 ) ) ;
#133 = APPLICATION_PROTOCOL_DEFINITION ( 'international standard', 'config_control_design', 1994, #148 ) ;
#134 = ORIENTED_EDGE ( 'NONE', *, *, #161, .F. ) ;
#135 = CARTESIAN_POINT ( 'NONE',  ( 0.000000000000000000, 0.000000000000000000, 630.0000000000000000 ) ) ;
#136 = CARTESIAN_POINT ( 'NONE',  ( 0.000000000000000000, 0.000000000000000000, 0.000000000000000000 ) ) ;
#137 = ORIENTED_EDGE ( 'NONE', *, *, #84, .F. ) ;
#138 = DIRECTION ( 'NONE',  ( -1.000000000000000000, 0.000000000000000000, 0.000000000000000000 ) ) ;
#139 = DIRECTION ( 'NONE',  ( 0.000000000000000000, 0.000000000000000000, 1.000000000000000000 ) ) ;
#140 = MANIFOLD_SOLID_BREP ( 'Pøidat vysunutím3', #160 ) ;
#141 = AXIS2_PLACEMENT_3D ( 'NONE', #118, #117, #26 ) ;
#142 = APPROVAL_PERSON_ORGANIZATION ( #228, #243, #88 ) ;
#143 = CALENDAR_DATE ( 2023, 12, 2 ) ;
#144 = DIRECTION ( 'NONE',  ( -1.000000000000000000, 0.000000000000000000, 0.000000000000000000 ) ) ;
#145 = FACE_OUTER_BOUND ( 'NONE', #116, .T. ) ;
#146 = EDGE_LOOP ( 'NONE', ( #114, #134, #200, #61 ) ) ;
#147 = ORIENTED_EDGE ( 'NONE', *, *, #109, .T. ) ;
#148 = APPLICATION_CONTEXT ( 'configuration controlled 3d designs of mechanical parts and assemblies' ) ;
#149 = PERSON_AND_ORGANIZATION ( #53, #113 ) ;
#150 = ORIENTED_EDGE ( 'NONE', *, *, #214, .F. ) ;
#151 = DIRECTION ( 'NONE',  ( -0.000000000000000000, -0.000000000000000000, -1.000000000000000000 ) ) ;
#152 = EDGE_LOOP ( 'NONE', ( #171, #38 ) ) ;
#153 = CC_DESIGN_PERSON_AND_ORGANIZATION_ASSIGNMENT ( #49, #189, ( #73 ) ) ;
#154 = DIRECTION ( 'NONE',  ( 0.000000000000000000, 0.000000000000000000, 1.000000000000000000 ) ) ;
#155 = ORIENTED_EDGE ( 'NONE', *, *, #109, .F. ) ;
#156 = EDGE_CURVE ( 'NONE', #76, #4, #206, .T. ) ;
#157 = APPLICATION_CONTEXT ( 'configuration controlled 3d designs of mechanical parts and assemblies' ) ;
#158 = DIRECTION ( 'NONE',  ( -0.000000000000000000, -0.000000000000000000, -1.000000000000000000 ) ) ;
#159 = PRODUCT ( 'baa1', 'baa1', '', ( #178 ) ) ;
#160 = CLOSED_SHELL ( 'NONE', ( #207, #184, #85, #253, #67, #119, #127 ) ) ;
#161 = EDGE_CURVE ( 'NONE', #98, #75, #226, .T. ) ;
#162 = CC_DESIGN_PERSON_AND_ORGANIZATION_ASSIGNMENT ( #149, #111, ( #37 ) ) ;
#163 = CC_DESIGN_PERSON_AND_ORGANIZATION_ASSIGNMENT ( #235, #56, ( #159 ) ) ;
#164 = UNCERTAINTY_MEASURE_WITH_UNIT (LENGTH_MEASURE( 1.000000000000000082E-05 ), #195, 'distance_accuracy_value', 'NONE');
#165 = DATE_AND_TIME ( #143, #92 ) ;
#166 = EDGE_CURVE ( 'NONE', #23, #254, #208, .T. ) ;
#167 = DATE_AND_TIME ( #50, #181 ) ;
#168 = CARTESIAN_POINT ( 'NONE',  ( 0.000000000000000000, 0.000000000000000000, 0.000000000000000000 ) ) ;
#169 = DIRECTION ( 'NONE',  ( 1.000000000000000000, 0.000000000000000000, -0.000000000000000000 ) ) ;
#170 = SECURITY_CLASSIFICATION_LEVEL ( 'unclassified' ) ;
#171 = ORIENTED_EDGE ( 'NONE', *, *, #161, .T. ) ;
#172 = CARTESIAN_POINT ( 'NONE',  ( -2.600000000000000089, 0.000000000000000000, 630.0000000000000000 ) ) ;
#173 = EDGE_LOOP ( 'NONE', ( #137, #150, #51, #236 ) ) ;
#174 = DIRECTION ( 'NONE',  ( 1.000000000000000000, 0.000000000000000000, 0.000000000000000000 ) ) ;
#175 = AXIS2_PLACEMENT_3D ( 'NONE', #210, #32, #144 ) ;
#176 = ORIENTED_EDGE ( 'NONE', *, *, #7, .T. ) ;
#177 = CARTESIAN_POINT ( 'NONE',  ( 2.600000000000000089, 3.184081677783118191E-16, 3.000000000000000000 ) ) ;
#178 = MECHANICAL_CONTEXT ( 'NONE', #157, 'mechanical' ) ;
#179 = CARTESIAN_POINT ( 'NONE',  ( 0.000000000000000000, 0.000000000000000000, 3.000000000000000000 ) ) ;
#180 = DIRECTION ( 'NONE',  ( 1.000000000000000000, 0.000000000000000000, 0.000000000000000000 ) ) ;
#181 = LOCAL_TIME ( 13, 26, 38.00000000000000000, #126 ) ;
#182 = CARTESIAN_POINT ( 'NONE',  ( 0.000000000000000000, 0.000000000000000000, 630.0000000000000000 ) ) ;
#183 = SHAPE_DEFINITION_REPRESENTATION ( #28, #87 ) ;
#184 = ADVANCED_FACE ( 'NONE', ( #8 ), #83, .T. ) ;
#185 = VECTOR ( 'NONE', #125, 1000.000000000000000 ) ;
#186 = APPROVAL_ROLE ( '' ) ;
#187 = PLANE ( 'NONE',  #34 ) ;
#188 = CYLINDRICAL_SURFACE ( 'NONE', #175, 5.000000000000000000 ) ;
#189 = PERSON_AND_ORGANIZATION_ROLE ( 'classification_officer' ) ;
#190 = VERTEX_POINT ( 'NONE', #95 ) ;
#191 = APPROVAL_PERSON_ORGANIZATION ( #71, #46, #186 ) ;
#192 = PRODUCT_DEFINITION ( 'NEZNÁMÝ', '', #37, #30 ) ;
#193 = AXIS2_PLACEMENT_3D ( 'NONE', #129, #213, #36 ) ;
#194 = ORIENTED_EDGE ( 'NONE', *, *, #217, .F. ) ;
#195 =( LENGTH_UNIT ( ) NAMED_UNIT ( * ) SI_UNIT ( .MILLI., .METRE. ) );
#196 = COORDINATED_UNIVERSAL_TIME_OFFSET ( 1, 0, .AHEAD. ) ;
#197 = ORIENTED_EDGE ( 'NONE', *, *, #68, .T. ) ;
#198 = PLANE ( 'NONE',  #11 ) ;
#199 =( NAMED_UNIT ( * ) SI_UNIT ( $, .STERADIAN. ) SOLID_ANGLE_UNIT ( ) );
#200 = ORIENTED_EDGE ( 'NONE', *, *, #217, .T. ) ;
#201 = VECTOR ( 'NONE', #151, 1000.000000000000000 ) ;
#202 = AXIS2_PLACEMENT_3D ( 'NONE', #223, #139, #45 ) ;
#203 = DIRECTION ( 'NONE',  ( 1.000000000000000000, 0.000000000000000000, 0.000000000000000000 ) ) ;
#204 = FACE_OUTER_BOUND ( 'NONE', #173, .T. ) ;
#205 = CC_DESIGN_PERSON_AND_ORGANIZATION_ASSIGNMENT ( #20, #14, ( #37 ) ) ;
#206 = CIRCLE ( 'NONE', #202, 5.000000000000000000 ) ;
#207 = ADVANCED_FACE ( 'NONE', ( #2 ), #59, .T. ) ;
#208 = CIRCLE ( 'NONE', #99, 2.600000000000000089 ) ;
#209 = APPROVAL_STATUS ( 'not_yet_approved' ) ;
#210 = CARTESIAN_POINT ( 'NONE',  ( 0.000000000000000000, 0.000000000000000000, 3.000000000000000000 ) ) ;
#211 = DIRECTION ( 'NONE',  ( 1.000000000000000000, 0.000000000000000000, 0.000000000000000000 ) ) ;
#212 = VECTOR ( 'NONE', #229, 1000.000000000000000 ) ;
#213 = DIRECTION ( 'NONE',  ( 0.000000000000000000, 0.000000000000000000, 1.000000000000000000 ) ) ;
#214 = EDGE_CURVE ( 'NONE', #22, #190, #54, .T. ) ;
#215 = CALENDAR_DATE ( 2023, 12, 2 ) ;
#216 = FACE_OUTER_BOUND ( 'NONE', #152, .T. ) ;
#217 = EDGE_CURVE ( 'NONE', #98, #76, #77, .T. ) ;
#218 = EDGE_LOOP ( 'NONE', ( #21, #176 ) ) ;
#219 = DIRECTION ( 'NONE',  ( 1.000000000000000000, 0.000000000000000000, 0.000000000000000000 ) ) ;
#220 = DIRECTION ( 'NONE',  ( 0.000000000000000000, 0.000000000000000000, 1.000000000000000000 ) ) ;
#221 = LOCAL_TIME ( 13, 26, 38.00000000000000000, #196 ) ;
#222 = DIRECTION ( 'NONE',  ( 0.000000000000000000, 0.000000000000000000, 1.000000000000000000 ) ) ;
#223 = CARTESIAN_POINT ( 'NONE',  ( 0.000000000000000000, 0.000000000000000000, 0.000000000000000000 ) ) ;
#224 = CC_DESIGN_DATE_AND_TIME_ASSIGNMENT ( #17, #245, ( #192 ) ) ;
#225 = CIRCLE ( 'NONE', #193, 2.600000000000000089 ) ;
#226 = CIRCLE ( 'NONE', #141, 5.000000000000000000 ) ;
#227 = CC_DESIGN_SECURITY_CLASSIFICATION ( #73, ( #37 ) ) ;
#228 = PERSON_AND_ORGANIZATION ( #53, #113 ) ;
#229 = DIRECTION ( 'NONE',  ( -0.000000000000000000, -0.000000000000000000, -1.000000000000000000 ) ) ;
#230 = APPROVAL ( #107, 'NEURÈENÝ' ) ;
#231 = CARTESIAN_POINT ( 'NONE',  ( 2.600000000000000089, 3.184081677783118191E-16, 630.0000000000000000 ) ) ;
#232 = DIRECTION ( 'NONE',  ( 0.000000000000000000, 0.000000000000000000, 1.000000000000000000 ) ) ;
#233 = AXIS2_PLACEMENT_3D ( 'NONE', #255, #40, #79 ) ;
#234 = ORIENTED_EDGE ( 'NONE', *, *, #7, .F. ) ;
#235 = PERSON_AND_ORGANIZATION ( #53, #113 ) ;
#236 = ORIENTED_EDGE ( 'NONE', *, *, #166, .T. ) ;
#237 = CARTESIAN_POINT ( 'NONE',  ( 0.000000000000000000, 0.000000000000000000, 3.000000000000000000 ) ) ;
#238 = EDGE_LOOP ( 'NONE', ( #251, #155 ) ) ;
#239 = CARTESIAN_POINT ( 'NONE',  ( -5.000000000000000000, 0.000000000000000000, 3.000000000000000000 ) ) ;
#240 = DIRECTION ( 'NONE',  ( -0.000000000000000000, -0.000000000000000000, -1.000000000000000000 ) ) ;
#241 = AXIS2_PLACEMENT_3D ( 'NONE', #237, #62, #219 ) ;
#242 = CARTESIAN_POINT ( 'NONE',  ( 0.000000000000000000, 0.000000000000000000, 630.0000000000000000 ) ) ;
#243 = APPROVAL ( #15, 'NEURÈENÝ' ) ;
#244 = DATE_TIME_ROLE ( 'classification_date' ) ;
#245 = DATE_TIME_ROLE ( 'creation_date' ) ;
#246 = CARTESIAN_POINT ( 'NONE',  ( -5.000000000000000000, 0.000000000000000000, 0.000000000000000000 ) ) ;
#247 = APPROVAL_ROLE ( '' ) ;
#248 = EDGE_CURVE ( 'NONE', #75, #98, #42, .T. ) ;
#249 = FACE_OUTER_BOUND ( 'NONE', #146, .T. ) ;
#250 = APPROVAL_PERSON_ORGANIZATION ( #70, #230, #247 ) ;
#251 = ORIENTED_EDGE ( 'NONE', *, *, #166, .F. ) ;
#252 = COORDINATED_UNIVERSAL_TIME_OFFSET ( 1, 0, .AHEAD. ) ;
#253 = ADVANCED_FACE ( 'NONE', ( #115, #216 ), #198, .T. ) ;
#254 = VERTEX_POINT ( 'NONE', #177 ) ;
#255 = CARTESIAN_POINT ( 'NONE',  ( 0.000000000000000000, 0.000000000000000000, 630.0000000000000000 ) ) ;
ENDSEC;
END-ISO-10303-21;
