ISO-10303-21;
HEADER;
FILE_DESCRIPTION (( 'STEP AP203' ),
    '1' );
FILE_NAME ('618a.STEP',
    '2022-07-07T10:01:20',
    ( '' ),
    ( '' ),
    'SwSTEP 2.0',
    'SolidWorks 2019',
    '' );
FILE_SCHEMA (( 'CONFIG_CONTROL_DESIGN' ));
ENDSEC;

DATA;
#1 = DIRECTION ( 'NONE',  ( -0.000000000000000000, -0.000000000000000000, -1.000000000000000000 ) ) ;
#2 = DIRECTION ( 'NONE',  ( 0.000000000000000000, 0.000000000000000000, 1.000000000000000000 ) ) ;
#3 = AXIS2_PLACEMENT_3D ( 'NONE', #163, #145, #204 ) ;
#4 = APPROVAL ( #207, 'NEURÈENÝ' ) ;
#5 = DIRECTION ( 'NONE',  ( -0.000000000000000000, -0.000000000000000000, -1.000000000000000000 ) ) ;
#6 = SECURITY_CLASSIFICATION ( '', '', #131 ) ;
#7 = CARTESIAN_POINT ( 'NONE',  ( 7.000000000000000000, 8.572527594031473190E-16, 5.000000000000000000 ) ) ;
#8 = DIRECTION ( 'NONE',  ( 1.000000000000000000, 0.000000000000000000, -0.000000000000000000 ) ) ;
#9 = CYLINDRICAL_SURFACE ( 'NONE', #31, 7.000000000000000000 ) ;
#10 = LOCAL_TIME ( 12, 1, 20.00000000000000000, #273 ) ;
#11 = PERSON_AND_ORGANIZATION ( #218, #298 ) ;
#12 = APPLICATION_PROTOCOL_DEFINITION ( 'international standard', 'config_control_design', 1994, #236 ) ;
#13 = ORIENTED_EDGE ( 'NONE', *, *, #302, .T. ) ;
#14 = APPROVAL_DATE_TIME ( #277, #4 ) ;
#15 = EDGE_CURVE ( 'NONE', #270, #129, #112, .T. ) ;
#16 = ORIENTED_EDGE ( 'NONE', *, *, #202, .F. ) ;
#17 = CLOSED_SHELL ( 'NONE', ( #300, #167, #149, #121, #276, #235, #238, #28, #95 ) ) ;
#18 = CIRCLE ( 'NONE', #56, 4.099999999999999645 ) ;
#19 = EDGE_CURVE ( 'NONE', #180, #113, #191, .T. ) ;
#20 = APPROVAL_DATE_TIME ( #257, #156 ) ;
#21 = CARTESIAN_POINT ( 'NONE',  ( 4.099999999999999645, 5.021051876504147385E-16, 165.0000000000000000 ) ) ;
#22 = LOCAL_TIME ( 12, 1, 20.00000000000000000, #255 ) ;
#23 = DIRECTION ( 'NONE',  ( 0.000000000000000000, 0.000000000000000000, -1.000000000000000000 ) ) ;
#24 = CARTESIAN_POINT ( 'NONE',  ( -7.000000000000000000, 0.000000000000000000, 5.000000000000000000 ) ) ;
#25 = CARTESIAN_POINT ( 'NONE',  ( -7.000000000000000000, 0.000000000000000000, 5.000000000000000000 ) ) ;
#26 = CC_DESIGN_DATE_AND_TIME_ASSIGNMENT ( #37, #176, ( #6 ) ) ;
#27 = CIRCLE ( 'NONE', #87, 0.1999999999999996503 ) ;
#28 = ADVANCED_FACE ( 'NONE', ( #263 ), #174, .T. ) ;
#29 = DIRECTION ( 'NONE',  ( -0.000000000000000000, -0.000000000000000000, -1.000000000000000000 ) ) ;
#30 = CARTESIAN_POINT ( 'NONE',  ( 0.000000000000000000, 0.000000000000000000, 5.200000000000009948 ) ) ;
#31 = AXIS2_PLACEMENT_3D ( 'NONE', #267, #5, #243 ) ;
#32 = CARTESIAN_POINT ( 'NONE',  ( 7.000000000000000000, 8.572527594031473190E-16, 5.000000000000000000 ) ) ;
#33 = CARTESIAN_POINT ( 'NONE',  ( 0.000000000000000000, 0.000000000000000000, 165.0000000000000000 ) ) ;
#34 = DIRECTION ( 'NONE',  ( 0.000000000000000000, 0.000000000000000000, 1.000000000000000000 ) ) ;
#35 = VECTOR ( 'NONE', #1, 1000.000000000000000 ) ;
#36 = ORIENTED_EDGE ( 'NONE', *, *, #200, .T. ) ;
#37 = DATE_AND_TIME ( #83, #72 ) ;
#38 = UNCERTAINTY_MEASURE_WITH_UNIT (LENGTH_MEASURE( 1.000000000000000082E-05 ), #299, 'distance_accuracy_value', 'NONE');
#39 = ORIENTED_EDGE ( 'NONE', *, *, #256, .T. ) ;
#40 = CALENDAR_DATE ( 2022, 7, 7 ) ;
#41 = CC_DESIGN_PERSON_AND_ORGANIZATION_ASSIGNMENT ( #304, #109, ( #98 ) ) ;
#42 = ORIENTED_EDGE ( 'NONE', *, *, #15, .F. ) ;
#43 = ORIENTED_EDGE ( 'NONE', *, *, #200, .F. ) ;
#44 = PERSON_AND_ORGANIZATION_ROLE ( 'design_supplier' ) ;
#45 = COORDINATED_UNIVERSAL_TIME_OFFSET ( 1, 0, .AHEAD. ) ;
#46 = CARTESIAN_POINT ( 'NONE',  ( 0.000000000000000000, 0.000000000000000000, 165.0000000000000000 ) ) ;
#47 = APPROVAL_PERSON_ORGANIZATION ( #61, #146, #85 ) ;
#48 = LINE ( 'NONE', #212, #124 ) ;
#49 = CARTESIAN_POINT ( 'NONE',  ( 7.000000000000000000, 8.572527594031473190E-16, 0.000000000000000000 ) ) ;
#50 = CC_DESIGN_PERSON_AND_ORGANIZATION_ASSIGNMENT ( #296, #44, ( #98 ) ) ;
#51 = CC_DESIGN_SECURITY_CLASSIFICATION ( #6, ( #98 ) ) ;
#52 = CARTESIAN_POINT ( 'NONE',  ( 0.000000000000000000, 0.000000000000000000, 165.0000000000000000 ) ) ;
#53 = DIRECTION ( 'NONE',  ( 1.224646799147353207E-16, 1.000000000000000000, -0.000000000000000000 ) ) ;
#54 = CYLINDRICAL_SURFACE ( 'NONE', #187, 4.099999999999999645 ) ;
#55 = AXIS2_PLACEMENT_3D ( 'NONE', #52, #34, #8 ) ;
#56 = AXIS2_PLACEMENT_3D ( 'NONE', #76, #198, #123 ) ;
#57 = CARTESIAN_POINT ( 'NONE',  ( -4.099999999999999645, 0.000000000000000000, 165.0000000000000000 ) ) ;
#58 = PRODUCT_RELATED_PRODUCT_CATEGORY ( 'detail', '', ( #284 ) ) ;
#59 = CARTESIAN_POINT ( 'NONE',  ( -4.299999999999998934, 5.265981236333617484E-16, 5.000000000000005329 ) ) ;
#60 = EDGE_CURVE ( 'NONE', #129, #253, #153, .T. ) ;
#61 = PERSON_AND_ORGANIZATION ( #218, #298 ) ;
#62 = AXIS2_PLACEMENT_3D ( 'NONE', #81, #80, #289 ) ;
#63 = ORIENTED_EDGE ( 'NONE', *, *, #179, .T. ) ;
#64 = ORIENTED_EDGE ( 'NONE', *, *, #60, .T. ) ;
#65 = COORDINATED_UNIVERSAL_TIME_OFFSET ( 1, 0, .AHEAD. ) ;
#66 = ORIENTED_EDGE ( 'NONE', *, *, #280, .F. ) ;
#67 = CIRCLE ( 'NONE', #3, 7.000000000000000000 ) ;
#68 = DIRECTION ( 'NONE',  ( 0.000000000000000000, 0.000000000000000000, 1.000000000000000000 ) ) ;
#69 = DIRECTION ( 'NONE',  ( -0.000000000000000000, -0.000000000000000000, -1.000000000000000000 ) ) ;
#70 = PRODUCT_DEFINITION_SHAPE ( 'NONE', 'NONE',  #96 ) ;
#71 = DIRECTION ( 'NONE',  ( 1.000000000000000000, 0.000000000000000000, 0.000000000000000000 ) ) ;
#72 = LOCAL_TIME ( 12, 1, 20.00000000000000000, #45 ) ;
#73 = CC_DESIGN_DATE_AND_TIME_ASSIGNMENT ( #269, #178, ( #96 ) ) ;
#74 = DIRECTION ( 'NONE',  ( 0.000000000000000000, 0.000000000000000000, 1.000000000000000000 ) ) ;
#75 = CARTESIAN_POINT ( 'NONE',  ( 0.000000000000000000, 0.000000000000000000, 5.200000000000009948 ) ) ;
#76 = CARTESIAN_POINT ( 'NONE',  ( 0.000000000000000000, 0.000000000000000000, 165.0000000000000000 ) ) ;
#77 = CARTESIAN_POINT ( 'NONE',  ( 0.000000000000000000, 0.000000000000000000, 5.000000000000000000 ) ) ;
#78 = DATE_AND_TIME ( #40, #10 ) ;
#79 = EDGE_CURVE ( 'NONE', #84, #251, #233, .T. ) ;
#80 = DIRECTION ( 'NONE',  ( 0.000000000000000000, 0.000000000000000000, 1.000000000000000000 ) ) ;
#81 = CARTESIAN_POINT ( 'NONE',  ( 0.000000000000000000, 0.000000000000000000, 5.200000000000009948 ) ) ;
#82 = ORIENTED_EDGE ( 'NONE', *, *, #266, .F. ) ;
#83 = CALENDAR_DATE ( 2022, 7, 7 ) ;
#84 = VERTEX_POINT ( 'NONE', #57 ) ;
#85 = APPROVAL_ROLE ( '' ) ;
#86 = ADVANCED_BREP_SHAPE_REPRESENTATION ( '618a', ( #279, #227 ), #158 ) ;
#87 = AXIS2_PLACEMENT_3D ( 'NONE', #93, #306, #23 ) ;
#88 = ORIENTED_EDGE ( 'NONE', *, *, #60, .F. ) ;
#89 =( NAMED_UNIT ( * ) SI_UNIT ( $, .STERADIAN. ) SOLID_ANGLE_UNIT ( ) );
#90 = CALENDAR_DATE ( 2022, 7, 7 ) ;
#91 = ORIENTED_EDGE ( 'NONE', *, *, #256, .F. ) ;
#92 = APPROVAL_ROLE ( '' ) ;
#93 = CARTESIAN_POINT ( 'NONE',  ( 4.299999999999998934, 0.000000000000000000, 5.200000000000009948 ) ) ;
#94 = DIRECTION ( 'NONE',  ( -0.000000000000000000, -0.000000000000000000, -1.000000000000000000 ) ) ;
#95 = ADVANCED_FACE ( 'NONE', ( #214 ), #142, .F. ) ;
#96 = PRODUCT_DEFINITION ( 'NEZNÁMÝ', '', #98, #106 ) ;
#97 = FACE_OUTER_BOUND ( 'NONE', #150, .T. ) ;
#98 = PRODUCT_DEFINITION_FORMATION_WITH_SPECIFIED_SOURCE ( 'LIBOVOLNÝ', '', #284, .NOT_KNOWN. ) ;
#99 = CARTESIAN_POINT ( 'NONE',  ( 0.000000000000000000, 0.000000000000000000, 5.200000000000009948 ) ) ;
#100 = CARTESIAN_POINT ( 'NONE',  ( 0.000000000000000000, 0.000000000000000000, 5.000000000000000000 ) ) ;
#101 = CIRCLE ( 'NONE', #105, 7.000000000000000000 ) ;
#102 = CARTESIAN_POINT ( 'NONE',  ( 0.000000000000000000, 0.000000000000000000, 165.0000000000000000 ) ) ;
#103 = CARTESIAN_POINT ( 'NONE',  ( -4.099999999999999645, 0.000000000000000000, 5.200000000000009948 ) ) ;
#104 = DIRECTION ( 'NONE',  ( -1.000000000000000000, 0.000000000000000000, 0.000000000000000000 ) ) ;
#105 = AXIS2_PLACEMENT_3D ( 'NONE', #119, #140, #285 ) ;
#106 = DESIGN_CONTEXT ( 'detailed design', #229, 'design' ) ;
#107 = APPROVAL_ROLE ( '' ) ;
#108 = VERTEX_POINT ( 'NONE', #59 ) ;
#109 = PERSON_AND_ORGANIZATION_ROLE ( 'creator' ) ;
#110 = ORIENTED_EDGE ( 'NONE', *, *, #179, .F. ) ;
#111 = PERSON_AND_ORGANIZATION_ROLE ( 'classification_officer' ) ;
#112 = CIRCLE ( 'NONE', #213, 7.000000000000000000 ) ;
#113 = VERTEX_POINT ( 'NONE', #103 ) ;
#114 = ORIENTED_EDGE ( 'NONE', *, *, #302, .F. ) ;
#115 = PERSON_AND_ORGANIZATION ( #218, #298 ) ;
#116 = DIRECTION ( 'NONE',  ( 0.000000000000000000, 0.000000000000000000, 1.000000000000000000 ) ) ;
#117 = CYLINDRICAL_SURFACE ( 'NONE', #261, 4.099999999999999645 ) ;
#118 = PLANE ( 'NONE',  #199 ) ;
#119 = CARTESIAN_POINT ( 'NONE',  ( 0.000000000000000000, 0.000000000000000000, 0.000000000000000000 ) ) ;
#120 = TOROIDAL_SURFACE ( 'NONE', #165, 4.299999999999998934, 0.2000000000000000111 ) ;
#121 = ADVANCED_FACE ( 'NONE', ( #290 ), #291, .T. ) ;
#122 = CARTESIAN_POINT ( 'NONE',  ( 4.099999999999999645, 5.021051876504147385E-16, 5.200000000000009948 ) ) ;
#123 = DIRECTION ( 'NONE',  ( 1.000000000000000000, 0.000000000000000000, 0.000000000000000000 ) ) ;
#124 = VECTOR ( 'NONE', #259, 1000.000000000000000 ) ;
#125 = DIRECTION ( 'NONE',  ( 0.000000000000000000, 0.000000000000000000, 1.000000000000000000 ) ) ;
#126 = APPROVAL_DATE_TIME ( #78, #146 ) ;
#127 = DIRECTION ( 'NONE',  ( 1.000000000000000000, 0.000000000000000000, 0.000000000000000000 ) ) ;
#128 = AXIS2_PLACEMENT_3D ( 'NONE', #286, #94, #71 ) ;
#129 = VERTEX_POINT ( 'NONE', #7 ) ;
#130 = EDGE_LOOP ( 'NONE', ( #275, #217, #36, #132 ) ) ;
#131 = SECURITY_CLASSIFICATION_LEVEL ( 'unclassified' ) ;
#132 = ORIENTED_EDGE ( 'NONE', *, *, #258, .F. ) ;
#133 =( NAMED_UNIT ( * ) PLANE_ANGLE_UNIT ( ) SI_UNIT ( $, .RADIAN. ) );
#134 = EDGE_CURVE ( 'NONE', #113, #108, #136, .T. ) ;
#135 = CIRCLE ( 'NONE', #288, 4.299999999999998934 ) ;
#136 = CIRCLE ( 'NONE', #234, 0.1999999999999996503 ) ;
#137 = ORIENTED_EDGE ( 'NONE', *, *, #266, .T. ) ;
#138 = EDGE_CURVE ( 'NONE', #253, #177, #152, .T. ) ;
#139 = MECHANICAL_CONTEXT ( 'NONE', #236, 'mechanical' ) ;
#140 = DIRECTION ( 'NONE',  ( 0.000000000000000000, 0.000000000000000000, 1.000000000000000000 ) ) ;
#141 = DIRECTION ( 'NONE',  ( 1.000000000000000000, 0.000000000000000000, 0.000000000000000000 ) ) ;
#142 = TOROIDAL_SURFACE ( 'NONE', #194, 4.299999999999998934, 0.2000000000000000111 ) ;
#143 = CC_DESIGN_APPROVAL ( #156, ( #98 ) ) ;
#144 = FACE_BOUND ( 'NONE', #159, .T. ) ;
#145 = DIRECTION ( 'NONE',  ( 0.000000000000000000, 0.000000000000000000, 1.000000000000000000 ) ) ;
#146 = APPROVAL ( #157, 'NEURÈENÝ' ) ;
#147 = LOCAL_TIME ( 12, 1, 20.00000000000000000, #65 ) ;
#148 = CARTESIAN_POINT ( 'NONE',  ( 0.000000000000000000, 0.000000000000000000, 0.000000000000000000 ) ) ;
#149 = ADVANCED_FACE ( 'NONE', ( #154 ), #9, .T. ) ;
#150 = EDGE_LOOP ( 'NONE', ( #91, #274, #16, #43 ) ) ;
#151 = CARTESIAN_POINT ( 'NONE',  ( -7.000000000000000000, 0.000000000000000000, 0.000000000000000000 ) ) ;
#152 = CIRCLE ( 'NONE', #192, 7.000000000000000000 ) ;
#153 = LINE ( 'NONE', #32, #226 ) ;
#154 = FACE_OUTER_BOUND ( 'NONE', #228, .T. ) ;
#155 = ORIENTED_EDGE ( 'NONE', *, *, #19, .T. ) ;
#156 = APPROVAL ( #162, 'NEURÈENÝ' ) ;
#157 = APPROVAL_STATUS ( 'not_yet_approved' ) ;
#158 =( GEOMETRIC_REPRESENTATION_CONTEXT ( 3 ) GLOBAL_UNCERTAINTY_ASSIGNED_CONTEXT ( ( #38 ) ) GLOBAL_UNIT_ASSIGNED_CONTEXT ( ( #299, #133, #89 ) ) REPRESENTATION_CONTEXT ( 'NONE', 'WORKASPACE' ) );
#159 = EDGE_LOOP ( 'NONE', ( #183, #160 ) ) ;
#160 = ORIENTED_EDGE ( 'NONE', *, *, #258, .T. ) ;
#161 = VERTEX_POINT ( 'NONE', #195 ) ;
#162 = APPROVAL_STATUS ( 'not_yet_approved' ) ;
#163 = CARTESIAN_POINT ( 'NONE',  ( 0.000000000000000000, 0.000000000000000000, 5.000000000000000000 ) ) ;
#164 = PLANE ( 'NONE',  #305 ) ;
#165 = AXIS2_PLACEMENT_3D ( 'NONE', #99, #116, #283 ) ;
#166 = DIRECTION ( 'NONE',  ( 1.000000000000000000, 0.000000000000000000, -0.000000000000000000 ) ) ;
#167 = ADVANCED_FACE ( 'NONE', ( #220 ), #54, .T. ) ;
#168 = CIRCLE ( 'NONE', #128, 4.299999999999998934 ) ;
#169 = CC_DESIGN_PERSON_AND_ORGANIZATION_ASSIGNMENT ( #209, #282, ( #96 ) ) ;
#170 = CARTESIAN_POINT ( 'NONE',  ( -4.299999999999998934, 5.265981236333617484E-16, 5.200000000000009948 ) ) ;
#171 = DIRECTION ( 'NONE',  ( 0.000000000000000000, 0.000000000000000000, 1.000000000000000000 ) ) ;
#172 = DIRECTION ( 'NONE',  ( 1.000000000000000000, 0.000000000000000000, 0.000000000000000000 ) ) ;
#173 = LOCAL_TIME ( 12, 1, 20.00000000000000000, #248 ) ;
#174 = PLANE ( 'NONE',  #55 ) ;
#175 = ORIENTED_EDGE ( 'NONE', *, *, #138, .T. ) ;
#176 = DATE_TIME_ROLE ( 'classification_date' ) ;
#177 = VERTEX_POINT ( 'NONE', #151 ) ;
#178 = DATE_TIME_ROLE ( 'creation_date' ) ;
#179 = EDGE_CURVE ( 'NONE', #251, #84, #18, .T. ) ;
#180 = VERTEX_POINT ( 'NONE', #122 ) ;
#181 = EDGE_CURVE ( 'NONE', #270, #177, #216, .T. ) ;
#182 = PERSON_AND_ORGANIZATION ( #218, #298 ) ;
#183 = ORIENTED_EDGE ( 'NONE', *, *, #202, .T. ) ;
#184 = PERSON_AND_ORGANIZATION_ROLE ( 'design_owner' ) ;
#185 = ORIENTED_EDGE ( 'NONE', *, *, #79, .F. ) ;
#186 = CARTESIAN_POINT ( 'NONE',  ( 0.000000000000000000, 0.000000000000000000, 0.000000000000000000 ) ) ;
#187 = AXIS2_PLACEMENT_3D ( 'NONE', #33, #29, #104 ) ;
#188 = CARTESIAN_POINT ( 'NONE',  ( 0.000000000000000000, 0.000000000000000000, 5.000000000000000000 ) ) ;
#189 = DIRECTION ( 'NONE',  ( 1.000000000000000000, 0.000000000000000000, 0.000000000000000000 ) ) ;
#190 = FACE_OUTER_BOUND ( 'NONE', #297, .T. ) ;
#191 = CIRCLE ( 'NONE', #62, 4.099999999999999645 ) ;
#192 = AXIS2_PLACEMENT_3D ( 'NONE', #148, #171, #172 ) ;
#193 = CARTESIAN_POINT ( 'NONE',  ( 0.000000000000000000, 0.000000000000000000, 5.000000000000000000 ) ) ;
#194 = AXIS2_PLACEMENT_3D ( 'NONE', #30, #197, #245 ) ;
#195 = CARTESIAN_POINT ( 'NONE',  ( 4.299999999999998934, 0.000000000000000000, 5.000000000000005329 ) ) ;
#196 = DIRECTION ( 'NONE',  ( 1.000000000000000000, 0.000000000000000000, 0.000000000000000000 ) ) ;
#197 = DIRECTION ( 'NONE',  ( 0.000000000000000000, 0.000000000000000000, 1.000000000000000000 ) ) ;
#198 = DIRECTION ( 'NONE',  ( 0.000000000000000000, 0.000000000000000000, 1.000000000000000000 ) ) ;
#199 = AXIS2_PLACEMENT_3D ( 'NONE', #193, #2, #166 ) ;
#200 = EDGE_CURVE ( 'NONE', #180, #161, #27, .T. ) ;
#201 = ORIENTED_EDGE ( 'NONE', *, *, #181, .T. ) ;
#202 = EDGE_CURVE ( 'NONE', #161, #108, #168, .T. ) ;
#203 = ORIENTED_EDGE ( 'NONE', *, *, #15, .T. ) ;
#204 = DIRECTION ( 'NONE',  ( 1.000000000000000000, 0.000000000000000000, 0.000000000000000000 ) ) ;
#205 = APPROVAL_PERSON_ORGANIZATION ( #252, #4, #92 ) ;
#206 = ORIENTED_EDGE ( 'NONE', *, *, #181, .F. ) ;
#207 = APPROVAL_STATUS ( 'not_yet_approved' ) ;
#208 = ORIENTED_EDGE ( 'NONE', *, *, #79, .T. ) ;
#209 = PERSON_AND_ORGANIZATION ( #218, #298 ) ;
#210 = CARTESIAN_POINT ( 'NONE',  ( 4.099999999999999645, 5.021051876504147385E-16, 165.0000000000000000 ) ) ;
#211 = DIRECTION ( 'NONE',  ( -0.000000000000000000, -0.000000000000000000, -1.000000000000000000 ) ) ;
#212 = CARTESIAN_POINT ( 'NONE',  ( -4.099999999999999645, 0.000000000000000000, 165.0000000000000000 ) ) ;
#213 = AXIS2_PLACEMENT_3D ( 'NONE', #100, #293, #127 ) ;
#214 = FACE_OUTER_BOUND ( 'NONE', #130, .T. ) ;
#215 = CC_DESIGN_APPROVAL ( #146, ( #6 ) ) ;
#216 = LINE ( 'NONE', #24, #221 ) ;
#217 = ORIENTED_EDGE ( 'NONE', *, *, #19, .F. ) ;
#218 = PERSON ( 'NEURÈENÝ', 'NEURÈENÝ', 'NEURÈENÝ', ('NEURÈENÝ'), ('NEURÈENÝ'), ('NEURÈENÝ') ) ;
#219 = CC_DESIGN_PERSON_AND_ORGANIZATION_ASSIGNMENT ( #115, #111, ( #6 ) ) ;
#220 = FACE_OUTER_BOUND ( 'NONE', #268, .T. ) ;
#221 = VECTOR ( 'NONE', #211, 1000.000000000000000 ) ;
#222 = DIRECTION ( 'NONE',  ( 1.000000000000000000, 0.000000000000000000, 0.000000000000000000 ) ) ;
#223 = EDGE_LOOP ( 'NONE', ( #203, #13 ) ) ;
#224 = CALENDAR_DATE ( 2022, 7, 7 ) ;
#225 = EDGE_LOOP ( 'NONE', ( #208, #63 ) ) ;
#226 = VECTOR ( 'NONE', #265, 1000.000000000000000 ) ;
#227 = AXIS2_PLACEMENT_3D ( 'NONE', #186, #68, #222 ) ;
#228 = EDGE_LOOP ( 'NONE', ( #114, #64, #175, #206 ) ) ;
#229 = APPLICATION_CONTEXT ( 'configuration controlled 3d designs of mechanical parts and assemblies' ) ;
#230 = CC_DESIGN_PERSON_AND_ORGANIZATION_ASSIGNMENT ( #182, #184, ( #284 ) ) ;
#231 = LINE ( 'NONE', #21, #35 ) ;
#232 = CARTESIAN_POINT ( 'NONE',  ( 0.000000000000000000, 0.000000000000000000, 0.000000000000000000 ) ) ;
#233 = CIRCLE ( 'NONE', #271, 4.099999999999999645 ) ;
#234 = AXIS2_PLACEMENT_3D ( 'NONE', #170, #53, #242 ) ;
#235 = ADVANCED_FACE ( 'NONE', ( #190 ), #164, .F. ) ;
#236 = APPLICATION_CONTEXT ( 'configuration controlled 3d designs of mechanical parts and assemblies' ) ;
#237 = FACE_OUTER_BOUND ( 'NONE', #223, .T. ) ;
#238 = ADVANCED_FACE ( 'NONE', ( #239 ), #117, .T. ) ;
#239 = FACE_OUTER_BOUND ( 'NONE', #303, .T. ) ;
#240 = CIRCLE ( 'NONE', #254, 4.099999999999999645 ) ;
#241 = DIRECTION ( 'NONE',  ( -1.000000000000000000, 0.000000000000000000, 0.000000000000000000 ) ) ;
#242 = DIRECTION ( 'NONE',  ( -1.000000000000000000, 1.224646799147353454E-16, 0.000000000000000000 ) ) ;
#243 = DIRECTION ( 'NONE',  ( -1.000000000000000000, 0.000000000000000000, 0.000000000000000000 ) ) ;
#244 = DIRECTION ( 'NONE',  ( -0.000000000000000000, -0.000000000000000000, -1.000000000000000000 ) ) ;
#245 = DIRECTION ( 'NONE',  ( 1.000000000000000000, 0.000000000000000000, 0.000000000000000000 ) ) ;
#246 = SHAPE_DEFINITION_REPRESENTATION ( #70, #86 ) ;
#247 = ORIENTED_EDGE ( 'NONE', *, *, #264, .T. ) ;
#248 = COORDINATED_UNIVERSAL_TIME_OFFSET ( 1, 0, .AHEAD. ) ;
#249 = ORIENTED_EDGE ( 'NONE', *, *, #138, .F. ) ;
#250 = CALENDAR_DATE ( 2022, 7, 7 ) ;
#251 = VERTEX_POINT ( 'NONE', #210 ) ;
#252 = PERSON_AND_ORGANIZATION ( #218, #298 ) ;
#253 = VERTEX_POINT ( 'NONE', #49 ) ;
#254 = AXIS2_PLACEMENT_3D ( 'NONE', #75, #74, #141 ) ;
#255 = COORDINATED_UNIVERSAL_TIME_OFFSET ( 1, 0, .AHEAD. ) ;
#256 = EDGE_CURVE ( 'NONE', #113, #180, #240, .T. ) ;
#257 = DATE_AND_TIME ( #224, #173 ) ;
#258 = EDGE_CURVE ( 'NONE', #108, #161, #135, .T. ) ;
#259 = DIRECTION ( 'NONE',  ( -0.000000000000000000, -0.000000000000000000, -1.000000000000000000 ) ) ;
#260 = DIRECTION ( 'NONE',  ( 1.000000000000000000, 0.000000000000000000, -0.000000000000000000 ) ) ;
#261 = AXIS2_PLACEMENT_3D ( 'NONE', #46, #262, #287 ) ;
#262 = DIRECTION ( 'NONE',  ( -0.000000000000000000, -0.000000000000000000, -1.000000000000000000 ) ) ;
#263 = FACE_OUTER_BOUND ( 'NONE', #225, .T. ) ;
#264 = EDGE_CURVE ( 'NONE', #84, #113, #48, .T. ) ;
#265 = DIRECTION ( 'NONE',  ( -0.000000000000000000, -0.000000000000000000, -1.000000000000000000 ) ) ;
#266 = EDGE_CURVE ( 'NONE', #177, #253, #101, .T. ) ;
#267 = CARTESIAN_POINT ( 'NONE',  ( 0.000000000000000000, 0.000000000000000000, 5.000000000000000000 ) ) ;
#268 = EDGE_LOOP ( 'NONE', ( #110, #278, #155, #295 ) ) ;
#269 = DATE_AND_TIME ( #250, #147 ) ;
#270 = VERTEX_POINT ( 'NONE', #25 ) ;
#271 = AXIS2_PLACEMENT_3D ( 'NONE', #102, #125, #196 ) ;
#272 = APPROVAL_PERSON_ORGANIZATION ( #11, #156, #107 ) ;
#273 = COORDINATED_UNIVERSAL_TIME_OFFSET ( 1, 0, .AHEAD. ) ;
#274 = ORIENTED_EDGE ( 'NONE', *, *, #134, .T. ) ;
#275 = ORIENTED_EDGE ( 'NONE', *, *, #134, .F. ) ;
#276 = ADVANCED_FACE ( 'NONE', ( #144, #237 ), #118, .T. ) ;
#277 = DATE_AND_TIME ( #90, #22 ) ;
#278 = ORIENTED_EDGE ( 'NONE', *, *, #280, .T. ) ;
#279 = MANIFOLD_SOLID_BREP ( 'Zaoblit1', #17 ) ;
#280 = EDGE_CURVE ( 'NONE', #251, #180, #231, .T. ) ;
#281 = CC_DESIGN_APPROVAL ( #4, ( #96 ) ) ;
#282 = PERSON_AND_ORGANIZATION_ROLE ( 'creator' ) ;
#283 = DIRECTION ( 'NONE',  ( 1.000000000000000000, 0.000000000000000000, 0.000000000000000000 ) ) ;
#284 = PRODUCT ( '618a', '618a', '', ( #139 ) ) ;
#285 = DIRECTION ( 'NONE',  ( 1.000000000000000000, 0.000000000000000000, 0.000000000000000000 ) ) ;
#286 = CARTESIAN_POINT ( 'NONE',  ( 0.000000000000000000, 0.000000000000000000, 5.000000000000000000 ) ) ;
#287 = DIRECTION ( 'NONE',  ( -1.000000000000000000, 0.000000000000000000, 0.000000000000000000 ) ) ;
#288 = AXIS2_PLACEMENT_3D ( 'NONE', #188, #69, #189 ) ;
#289 = DIRECTION ( 'NONE',  ( 1.000000000000000000, 0.000000000000000000, 0.000000000000000000 ) ) ;
#290 = FACE_OUTER_BOUND ( 'NONE', #301, .T. ) ;
#291 = CYLINDRICAL_SURFACE ( 'NONE', #292, 7.000000000000000000 ) ;
#292 = AXIS2_PLACEMENT_3D ( 'NONE', #77, #244, #241 ) ;
#293 = DIRECTION ( 'NONE',  ( 0.000000000000000000, 0.000000000000000000, 1.000000000000000000 ) ) ;
#294 = APPLICATION_PROTOCOL_DEFINITION ( 'international standard', 'config_control_design', 1994, #229 ) ;
#295 = ORIENTED_EDGE ( 'NONE', *, *, #264, .F. ) ;
#296 = PERSON_AND_ORGANIZATION ( #218, #298 ) ;
#297 = EDGE_LOOP ( 'NONE', ( #82, #249 ) ) ;
#298 = ORGANIZATION ( 'NEURÈENÝ', 'NEURÈENÝ', '' ) ;
#299 =( LENGTH_UNIT ( ) NAMED_UNIT ( * ) SI_UNIT ( .MILLI., .METRE. ) );
#300 = ADVANCED_FACE ( 'NONE', ( #97 ), #120, .F. ) ;
#301 = EDGE_LOOP ( 'NONE', ( #88, #42, #201, #137 ) ) ;
#302 = EDGE_CURVE ( 'NONE', #129, #270, #67, .T. ) ;
#303 = EDGE_LOOP ( 'NONE', ( #66, #185, #247, #39 ) ) ;
#304 = PERSON_AND_ORGANIZATION ( #218, #298 ) ;
#305 = AXIS2_PLACEMENT_3D ( 'NONE', #232, #307, #260 ) ;
#306 = DIRECTION ( 'NONE',  ( 0.000000000000000000, -1.000000000000000000, 0.000000000000000000 ) ) ;
#307 = DIRECTION ( 'NONE',  ( 0.000000000000000000, 0.000000000000000000, 1.000000000000000000 ) ) ;
ENDSEC;
END-ISO-10303-21;
