ISO-10303-21;
HEADER;
FILE_DESCRIPTION (( 'STEP AP203' ),
    '1' );
FILE_NAME ('8919.STEP',
    '2022-07-07T10:03:16',
    ( '' ),
    ( '' ),
    'SwSTEP 2.0',
    'SolidWorks 2019',
    '' );
FILE_SCHEMA (( 'CONFIG_CONTROL_DESIGN' ));
ENDSEC;

DATA;
#1 = APPROVAL_ROLE ( '' ) ;
#2 = APPROVAL_ROLE ( '' ) ;
#3 = APPROVAL_STATUS ( 'not_yet_approved' ) ;
#4 = CIRCLE ( 'NONE', #179, 4.200000000000000178 ) ;
#5 = EDGE_CURVE ( 'NONE', #235, #148, #285, .T. ) ;
#6 = PERSON_AND_ORGANIZATION ( #96, #63 ) ;
#7 = CYLINDRICAL_SURFACE ( 'NONE', #241, 7.000000000000000000 ) ;
#8 = DIRECTION ( 'NONE',  ( 0.000000000000000000, 0.000000000000000000, 1.000000000000000000 ) ) ;
#9 = APPLICATION_PROTOCOL_DEFINITION ( 'international standard', 'config_control_design', 1994, #273 ) ;
#10 = CARTESIAN_POINT ( 'NONE',  ( 0.000000000000000000, 0.000000000000000000, 0.000000000000000000 ) ) ;
#11 = ORIENTED_EDGE ( 'NONE', *, *, #252, .T. ) ;
#12 = EDGE_CURVE ( 'NONE', #70, #106, #4, .T. ) ;
#13 = AXIS2_PLACEMENT_3D ( 'NONE', #298, #225, #66 ) ;
#14 = FACE_OUTER_BOUND ( 'NONE', #260, .T. ) ;
#15 = APPROVAL ( #124, 'NEURÈENÝ' ) ;
#16 = ORIENTED_EDGE ( 'NONE', *, *, #12, .F. ) ;
#17 = ORIENTED_EDGE ( 'NONE', *, *, #88, .F. ) ;
#18 = APPROVAL ( #3, 'NEURÈENÝ' ) ;
#19 = DIRECTION ( 'NONE',  ( 0.000000000000000000, 0.000000000000000000, 1.000000000000000000 ) ) ;
#20 = EDGE_LOOP ( 'NONE', ( #211, #277, #43, #205 ) ) ;
#21 = CARTESIAN_POINT ( 'NONE',  ( 0.000000000000000000, 0.000000000000000000, 5.200000000000009948 ) ) ;
#22 = LOCAL_TIME ( 12, 3, 16.00000000000000000, #81 ) ;
#23 = ORIENTED_EDGE ( 'NONE', *, *, #59, .T. ) ;
#24 = CARTESIAN_POINT ( 'NONE',  ( 0.000000000000000000, 0.000000000000000000, 0.000000000000000000 ) ) ;
#25 = CC_DESIGN_PERSON_AND_ORGANIZATION_ASSIGNMENT ( #99, #175, ( #186 ) ) ;
#26 = ORIENTED_EDGE ( 'NONE', *, *, #237, .F. ) ;
#27 = CARTESIAN_POINT ( 'NONE',  ( 0.000000000000000000, 0.000000000000000000, 5.200000000000009948 ) ) ;
#28 = ADVANCED_FACE ( 'NONE', ( #201, #14 ), #136, .T. ) ;
#29 = PERSON_AND_ORGANIZATION_ROLE ( 'classification_officer' ) ;
#30 = CIRCLE ( 'NONE', #296, 0.1999999999999996503 ) ;
#31 = PRODUCT_DEFINITION_SHAPE ( 'NONE', 'NONE',  #186 ) ;
#32 = LOCAL_TIME ( 12, 3, 16.00000000000000000, #51 ) ;
#33 = CALENDAR_DATE ( 2022, 7, 7 ) ;
#34 = VECTOR ( 'NONE', #155, 1000.000000000000000 ) ;
#35 = LINE ( 'NONE', #293, #137 ) ;
#36 = CARTESIAN_POINT ( 'NONE',  ( 0.000000000000000000, 0.000000000000000000, 5.000000000000000000 ) ) ;
#37 = CARTESIAN_POINT ( 'NONE',  ( 0.000000000000000000, 0.000000000000000000, 5.000000000000000000 ) ) ;
#38 = CIRCLE ( 'NONE', #198, 7.000000000000000000 ) ;
#39 = DIRECTION ( 'NONE',  ( 0.000000000000000000, 0.000000000000000000, 1.000000000000000000 ) ) ;
#40 = EDGE_CURVE ( 'NONE', #232, #163, #108, .T. ) ;
#41 = ORIENTED_EDGE ( 'NONE', *, *, #50, .T. ) ;
#42 = DIRECTION ( 'NONE',  ( 0.000000000000000000, 0.000000000000000000, 1.000000000000000000 ) ) ;
#43 = ORIENTED_EDGE ( 'NONE', *, *, #237, .T. ) ;
#44 = AXIS2_PLACEMENT_3D ( 'NONE', #36, #292, #114 ) ;
#45 = VERTEX_POINT ( 'NONE', #133 ) ;
#46 = ADVANCED_FACE ( 'NONE', ( #295 ), #269, .T. ) ;
#47 = PLANE ( 'NONE',  #101 ) ;
#48 = ORIENTED_EDGE ( 'NONE', *, *, #199, .F. ) ;
#49 = CARTESIAN_POINT ( 'NONE',  ( 0.000000000000000000, 0.000000000000000000, 205.0000000000000284 ) ) ;
#50 = EDGE_CURVE ( 'NONE', #45, #67, #85, .T. ) ;
#51 = COORDINATED_UNIVERSAL_TIME_OFFSET ( 1, 0, .AHEAD. ) ;
#52 = CARTESIAN_POINT ( 'NONE',  ( -4.000000000000000000, 0.000000000000000000, 205.0000000000000284 ) ) ;
#53 = CC_DESIGN_DATE_AND_TIME_ASSIGNMENT ( #284, #126, ( #301 ) ) ;
#54 = AXIS2_PLACEMENT_3D ( 'NONE', #21, #196, #244 ) ;
#55 = AXIS2_PLACEMENT_3D ( 'NONE', #103, #180, #200 ) ;
#56 = CARTESIAN_POINT ( 'NONE',  ( 0.000000000000000000, 0.000000000000000000, 5.000000000000000000 ) ) ;
#57 = AXIS2_PLACEMENT_3D ( 'NONE', #233, #212, #164 ) ;
#58 = COORDINATED_UNIVERSAL_TIME_OFFSET ( 1, 0, .AHEAD. ) ;
#59 = EDGE_CURVE ( 'NONE', #67, #45, #38, .T. ) ;
#60 =( NAMED_UNIT ( * ) SI_UNIT ( $, .STERADIAN. ) SOLID_ANGLE_UNIT ( ) );
#61 = LINE ( 'NONE', #226, #94 ) ;
#62 = DATE_AND_TIME ( #222, #22 ) ;
#63 = ORGANIZATION ( 'NEURÈENÝ', 'NEURÈENÝ', '' ) ;
#64 = EDGE_LOOP ( 'NONE', ( #230, #131 ) ) ;
#65 = DIRECTION ( 'NONE',  ( 1.000000000000000000, 0.000000000000000000, 0.000000000000000000 ) ) ;
#66 = DIRECTION ( 'NONE',  ( -1.000000000000000000, 0.000000000000000000, 0.000000000000000000 ) ) ;
#67 = VERTEX_POINT ( 'NONE', #229 ) ;
#68 = CARTESIAN_POINT ( 'NONE',  ( 4.000000000000000000, 4.898587196589412829E-16, 205.0000000000000284 ) ) ;
#69 = DIRECTION ( 'NONE',  ( 1.000000000000000000, 0.000000000000000000, -0.000000000000000000 ) ) ;
#70 = VERTEX_POINT ( 'NONE', #82 ) ;
#71 = CARTESIAN_POINT ( 'NONE',  ( 0.000000000000000000, 0.000000000000000000, 5.000000000000000000 ) ) ;
#72 = APPROVAL_DATE_TIME ( #173, #15 ) ;
#73 = DIRECTION ( 'NONE',  ( -1.000000000000000000, 0.000000000000000000, 0.000000000000000000 ) ) ;
#74 = CC_DESIGN_PERSON_AND_ORGANIZATION_ASSIGNMENT ( #79, #29, ( #301 ) ) ;
#75 = PERSON_AND_ORGANIZATION ( #96, #63 ) ;
#76 = COORDINATED_UNIVERSAL_TIME_OFFSET ( 1, 0, .AHEAD. ) ;
#77 = PRODUCT ( '8919', '8919', '', ( #178 ) ) ;
#78 = APPROVAL_PERSON_ORGANIZATION ( #172, #15, #1 ) ;
#79 = PERSON_AND_ORGANIZATION ( #96, #63 ) ;
#80 = EDGE_CURVE ( 'NONE', #140, #146, #250, .T. ) ;
#81 = COORDINATED_UNIVERSAL_TIME_OFFSET ( 1, 0, .AHEAD. ) ;
#82 = CARTESIAN_POINT ( 'NONE',  ( -4.200000000000000178, 5.143516556418882928E-16, 5.000000000000005329 ) ) ;
#83 = DIRECTION ( 'NONE',  ( 1.000000000000000000, 0.000000000000000000, 0.000000000000000000 ) ) ;
#84 = DIRECTION ( 'NONE',  ( -0.000000000000000000, -0.000000000000000000, -1.000000000000000000 ) ) ;
#85 = CIRCLE ( 'NONE', #188, 7.000000000000000000 ) ;
#86 = ORIENTED_EDGE ( 'NONE', *, *, #153, .T. ) ;
#87 = ORIENTED_EDGE ( 'NONE', *, *, #199, .T. ) ;
#88 = EDGE_CURVE ( 'NONE', #148, #67, #61, .T. ) ;
#89 = AXIS2_PLACEMENT_3D ( 'NONE', #259, #240, #95 ) ;
#90 = DIRECTION ( 'NONE',  ( 0.000000000000000000, 0.000000000000000000, 1.000000000000000000 ) ) ;
#91 = CYLINDRICAL_SURFACE ( 'NONE', #217, 4.000000000000000000 ) ;
#92 = ORIENTED_EDGE ( 'NONE', *, *, #88, .T. ) ;
#93 = FACE_OUTER_BOUND ( 'NONE', #189, .T. ) ;
#94 = VECTOR ( 'NONE', #157, 1000.000000000000000 ) ;
#95 = DIRECTION ( 'NONE',  ( 1.000000000000000000, 0.000000000000000000, 0.000000000000000000 ) ) ;
#96 = PERSON ( 'NEURÈENÝ', 'NEURÈENÝ', 'NEURÈENÝ', ('NEURÈENÝ'), ('NEURÈENÝ'), ('NEURÈENÝ') ) ;
#97 = DATE_TIME_ROLE ( 'creation_date' ) ;
#98 = APPROVAL_DATE_TIME ( #125, #18 ) ;
#99 = PERSON_AND_ORGANIZATION ( #96, #63 ) ;
#100 = EDGE_CURVE ( 'NONE', #146, #232, #35, .T. ) ;
#101 = AXIS2_PLACEMENT_3D ( 'NONE', #275, #147, #253 ) ;
#102 = DESIGN_CONTEXT ( 'detailed design', #273, 'design' ) ;
#103 = CARTESIAN_POINT ( 'NONE',  ( 0.000000000000000000, 0.000000000000000000, 205.0000000000000284 ) ) ;
#104 = CC_DESIGN_PERSON_AND_ORGANIZATION_ASSIGNMENT ( #150, #288, ( #286 ) ) ;
#105 = DIRECTION ( 'NONE',  ( -1.000000000000000000, 0.000000000000000000, 0.000000000000000000 ) ) ;
#106 = VERTEX_POINT ( 'NONE', #270 ) ;
#107 = ORIENTED_EDGE ( 'NONE', *, *, #283, .T. ) ;
#108 = CIRCLE ( 'NONE', #216, 4.000000000000000000 ) ;
#109 = APPROVAL_PERSON_ORGANIZATION ( #75, #18, #2 ) ;
#110 = EDGE_CURVE ( 'NONE', #140, #163, #122, .T. ) ;
#111 = AXIS2_PLACEMENT_3D ( 'NONE', #27, #90, #184 ) ;
#112 = ORIENTED_EDGE ( 'NONE', *, *, #161, .T. ) ;
#113 = ADVANCED_FACE ( 'NONE', ( #93 ), #47, .T. ) ;
#114 = DIRECTION ( 'NONE',  ( 1.000000000000000000, 0.000000000000000000, -0.000000000000000000 ) ) ;
#115 = ORIENTED_EDGE ( 'NONE', *, *, #5, .T. ) ;
#116 = DIRECTION ( 'NONE',  ( -0.000000000000000000, -0.000000000000000000, -1.000000000000000000 ) ) ;
#117 = ORIENTED_EDGE ( 'NONE', *, *, #80, .T. ) ;
#118 = AXIS2_PLACEMENT_3D ( 'NONE', #276, #231, #208 ) ;
#119 = CC_DESIGN_APPROVAL ( #18, ( #286 ) ) ;
#120 = FACE_OUTER_BOUND ( 'NONE', #64, .T. ) ;
#121 = EDGE_LOOP ( 'NONE', ( #17, #255, #107, #41 ) ) ;
#122 = LINE ( 'NONE', #236, #213 ) ;
#123 = DIRECTION ( 'NONE',  ( -0.000000000000000000, -0.000000000000000000, -1.000000000000000000 ) ) ;
#124 = APPROVAL_STATUS ( 'not_yet_approved' ) ;
#125 = DATE_AND_TIME ( #194, #234 ) ;
#126 = DATE_TIME_ROLE ( 'classification_date' ) ;
#127 = APPROVAL_PERSON_ORGANIZATION ( #291, #135, #290 ) ;
#128 = CIRCLE ( 'NONE', #111, 4.000000000000000000 ) ;
#129 = PERSON_AND_ORGANIZATION_ROLE ( 'design_owner' ) ;
#130 = DATE_AND_TIME ( #33, #294 ) ;
#131 = ORIENTED_EDGE ( 'NONE', *, *, #59, .F. ) ;
#132 = CIRCLE ( 'NONE', #118, 0.1999999999999996503 ) ;
#133 = CARTESIAN_POINT ( 'NONE',  ( -7.000000000000000000, 0.000000000000000000, 0.000000000000000000 ) ) ;
#134 = CARTESIAN_POINT ( 'NONE',  ( 0.000000000000000000, 0.000000000000000000, 5.200000000000009948 ) ) ;
#135 = APPROVAL ( #197, 'NEURÈENÝ' ) ;
#136 = PLANE ( 'NONE',  #44 ) ;
#137 = VECTOR ( 'NONE', #84, 1000.000000000000000 ) ;
#138 = EDGE_CURVE ( 'NONE', #232, #70, #30, .T. ) ;
#139 = DIRECTION ( 'NONE',  ( 0.000000000000000000, 0.000000000000000000, 1.000000000000000000 ) ) ;
#140 = VERTEX_POINT ( 'NONE', #68 ) ;
#141 = ADVANCED_BREP_SHAPE_REPRESENTATION ( '8919', ( #300, #287 ), #158 ) ;
#142 = CARTESIAN_POINT ( 'NONE',  ( 4.000000000000000000, 4.898587196589412829E-16, 5.200000000000009948 ) ) ;
#143 = EDGE_LOOP ( 'NONE', ( #281, #92, #23, #165 ) ) ;
#144 = CC_DESIGN_PERSON_AND_ORGANIZATION_ASSIGNMENT ( #214, #174, ( #286 ) ) ;
#145 = CARTESIAN_POINT ( 'NONE',  ( -4.000000000000000000, 0.000000000000000000, 5.200000000000009948 ) ) ;
#146 = VERTEX_POINT ( 'NONE', #52 ) ;
#147 = DIRECTION ( 'NONE',  ( 0.000000000000000000, 0.000000000000000000, 1.000000000000000000 ) ) ;
#148 = VERTEX_POINT ( 'NONE', #185 ) ;
#149 = DIRECTION ( 'NONE',  ( -1.000000000000000000, 0.000000000000000000, 0.000000000000000000 ) ) ;
#150 = PERSON_AND_ORGANIZATION ( #96, #63 ) ;
#151 = CC_DESIGN_DATE_AND_TIME_ASSIGNMENT ( #130, #97, ( #186 ) ) ;
#152 = CARTESIAN_POINT ( 'NONE',  ( -4.200000000000000178, 5.143516556418882928E-16, 5.200000000000009948 ) ) ;
#153 = EDGE_CURVE ( 'NONE', #148, #235, #247, .T. ) ;
#154 = CIRCLE ( 'NONE', #57, 4.000000000000000000 ) ;
#155 = DIRECTION ( 'NONE',  ( -0.000000000000000000, -0.000000000000000000, -1.000000000000000000 ) ) ;
#156 = DIRECTION ( 'NONE',  ( 0.000000000000000000, 0.000000000000000000, 1.000000000000000000 ) ) ;
#157 = DIRECTION ( 'NONE',  ( -0.000000000000000000, -0.000000000000000000, -1.000000000000000000 ) ) ;
#158 =( GEOMETRIC_REPRESENTATION_CONTEXT ( 3 ) GLOBAL_UNCERTAINTY_ASSIGNED_CONTEXT ( ( #221 ) ) GLOBAL_UNIT_ASSIGNED_CONTEXT ( ( #289, #176, #60 ) ) REPRESENTATION_CONTEXT ( 'NONE', 'WORKASPACE' ) );
#159 = CARTESIAN_POINT ( 'NONE',  ( 0.000000000000000000, 0.000000000000000000, 5.000000000000000000 ) ) ;
#160 = ORIENTED_EDGE ( 'NONE', *, *, #100, .T. ) ;
#161 = EDGE_CURVE ( 'NONE', #106, #70, #204, .T. ) ;
#162 = DIRECTION ( 'NONE',  ( 1.000000000000000000, 0.000000000000000000, 0.000000000000000000 ) ) ;
#163 = VERTEX_POINT ( 'NONE', #142 ) ;
#164 = DIRECTION ( 'NONE',  ( 1.000000000000000000, 0.000000000000000000, 0.000000000000000000 ) ) ;
#165 = ORIENTED_EDGE ( 'NONE', *, *, #283, .F. ) ;
#166 = DIRECTION ( 'NONE',  ( 1.000000000000000000, 0.000000000000000000, 0.000000000000000000 ) ) ;
#167 = ORIENTED_EDGE ( 'NONE', *, *, #40, .F. ) ;
#168 = CARTESIAN_POINT ( 'NONE',  ( 0.000000000000000000, 0.000000000000000000, 205.0000000000000284 ) ) ;
#169 = EDGE_LOOP ( 'NONE', ( #112, #302 ) ) ;
#170 = DIRECTION ( 'NONE',  ( -0.000000000000000000, -0.000000000000000000, -1.000000000000000000 ) ) ;
#171 = ADVANCED_FACE ( 'NONE', ( #120 ), #256, .F. ) ;
#172 = PERSON_AND_ORGANIZATION ( #96, #63 ) ;
#173 = DATE_AND_TIME ( #264, #32 ) ;
#174 = PERSON_AND_ORGANIZATION_ROLE ( 'design_supplier' ) ;
#175 = PERSON_AND_ORGANIZATION_ROLE ( 'creator' ) ;
#176 =( NAMED_UNIT ( * ) PLANE_ANGLE_UNIT ( ) SI_UNIT ( $, .RADIAN. ) );
#177 = ORIENTED_EDGE ( 'NONE', *, *, #161, .F. ) ;
#178 = MECHANICAL_CONTEXT ( 'NONE', #254, 'mechanical' ) ;
#179 = AXIS2_PLACEMENT_3D ( 'NONE', #159, #223, #202 ) ;
#180 = DIRECTION ( 'NONE',  ( 0.000000000000000000, 0.000000000000000000, 1.000000000000000000 ) ) ;
#181 = EDGE_LOOP ( 'NONE', ( #167, #304, #177, #48 ) ) ;
#182 = EDGE_LOOP ( 'NONE', ( #207, #26, #87, #16 ) ) ;
#183 = CC_DESIGN_PERSON_AND_ORGANIZATION_ASSIGNMENT ( #6, #129, ( #77 ) ) ;
#184 = DIRECTION ( 'NONE',  ( 1.000000000000000000, 0.000000000000000000, 0.000000000000000000 ) ) ;
#185 = CARTESIAN_POINT ( 'NONE',  ( 7.000000000000000000, 8.572527594031473190E-16, 5.000000000000000000 ) ) ;
#186 = PRODUCT_DEFINITION ( 'NEZNÁMÝ', '', #286, #102 ) ;
#187 = FACE_OUTER_BOUND ( 'NONE', #20, .T. ) ;
#188 = AXIS2_PLACEMENT_3D ( 'NONE', #10, #139, #162 ) ;
#189 = EDGE_LOOP ( 'NONE', ( #11, #117 ) ) ;
#190 = CARTESIAN_POINT ( 'NONE',  ( -7.000000000000000000, 0.000000000000000000, 5.000000000000000000 ) ) ;
#191 = COORDINATED_UNIVERSAL_TIME_OFFSET ( 1, 0, .AHEAD. ) ;
#192 = AXIS2_PLACEMENT_3D ( 'NONE', #37, #8, #271 ) ;
#193 = CC_DESIGN_APPROVAL ( #135, ( #186 ) ) ;
#194 = CALENDAR_DATE ( 2022, 7, 7 ) ;
#195 = PRODUCT_RELATED_PRODUCT_CATEGORY ( 'detail', '', ( #77 ) ) ;
#196 = DIRECTION ( 'NONE',  ( 0.000000000000000000, 0.000000000000000000, 1.000000000000000000 ) ) ;
#197 = APPROVAL_STATUS ( 'not_yet_approved' ) ;
#198 = AXIS2_PLACEMENT_3D ( 'NONE', #251, #39, #65 ) ;
#199 = EDGE_CURVE ( 'NONE', #163, #106, #132, .T. ) ;
#200 = DIRECTION ( 'NONE',  ( 1.000000000000000000, 0.000000000000000000, 0.000000000000000000 ) ) ;
#201 = FACE_BOUND ( 'NONE', #169, .T. ) ;
#202 = DIRECTION ( 'NONE',  ( 1.000000000000000000, 0.000000000000000000, 0.000000000000000000 ) ) ;
#203 = CC_DESIGN_APPROVAL ( #15, ( #301 ) ) ;
#204 = CIRCLE ( 'NONE', #89, 4.200000000000000178 ) ;
#205 = ORIENTED_EDGE ( 'NONE', *, *, #100, .F. ) ;
#206 = CYLINDRICAL_SURFACE ( 'NONE', #242, 4.000000000000000000 ) ;
#207 = ORIENTED_EDGE ( 'NONE', *, *, #138, .F. ) ;
#208 = DIRECTION ( 'NONE',  ( 0.000000000000000000, 0.000000000000000000, -1.000000000000000000 ) ) ;
#209 = DIRECTION ( 'NONE',  ( 0.000000000000000000, 0.000000000000000000, 1.000000000000000000 ) ) ;
#210 = ADVANCED_FACE ( 'NONE', ( #238 ), #91, .T. ) ;
#211 = ORIENTED_EDGE ( 'NONE', *, *, #80, .F. ) ;
#212 = DIRECTION ( 'NONE',  ( 0.000000000000000000, 0.000000000000000000, 1.000000000000000000 ) ) ;
#213 = VECTOR ( 'NONE', #170, 1000.000000000000000 ) ;
#214 = PERSON_AND_ORGANIZATION ( #96, #63 ) ;
#215 = ADVANCED_FACE ( 'NONE', ( #303 ), #280, .F. ) ;
#216 = AXIS2_PLACEMENT_3D ( 'NONE', #134, #272, #227 ) ;
#217 = AXIS2_PLACEMENT_3D ( 'NONE', #168, #116, #73 ) ;
#218 = APPROVAL_DATE_TIME ( #62, #135 ) ;
#219 = LINE ( 'NONE', #243, #34 ) ;
#220 = ADVANCED_FACE ( 'NONE', ( #187 ), #206, .T. ) ;
#221 = UNCERTAINTY_MEASURE_WITH_UNIT (LENGTH_MEASURE( 1.000000000000000082E-05 ), #289, 'distance_accuracy_value', 'NONE');
#222 = CALENDAR_DATE ( 2022, 7, 7 ) ;
#223 = DIRECTION ( 'NONE',  ( -0.000000000000000000, -0.000000000000000000, -1.000000000000000000 ) ) ;
#224 = APPLICATION_PROTOCOL_DEFINITION ( 'international standard', 'config_control_design', 1994, #254 ) ;
#225 = DIRECTION ( 'NONE',  ( -0.000000000000000000, -0.000000000000000000, -1.000000000000000000 ) ) ;
#226 = CARTESIAN_POINT ( 'NONE',  ( 7.000000000000000000, 8.572527594031473190E-16, 5.000000000000000000 ) ) ;
#227 = DIRECTION ( 'NONE',  ( 1.000000000000000000, 0.000000000000000000, 0.000000000000000000 ) ) ;
#228 = TOROIDAL_SURFACE ( 'NONE', #54, 4.200000000000000178, 0.2000000000000000111 ) ;
#229 = CARTESIAN_POINT ( 'NONE',  ( 7.000000000000000000, 8.572527594031473190E-16, 0.000000000000000000 ) ) ;
#230 = ORIENTED_EDGE ( 'NONE', *, *, #50, .F. ) ;
#231 = DIRECTION ( 'NONE',  ( 0.000000000000000000, -1.000000000000000000, 0.000000000000000000 ) ) ;
#232 = VERTEX_POINT ( 'NONE', #145 ) ;
#233 = CARTESIAN_POINT ( 'NONE',  ( 0.000000000000000000, 0.000000000000000000, 205.0000000000000284 ) ) ;
#234 = LOCAL_TIME ( 12, 3, 16.00000000000000000, #76 ) ;
#235 = VERTEX_POINT ( 'NONE', #190 ) ;
#236 = CARTESIAN_POINT ( 'NONE',  ( 4.000000000000000000, 4.898587196589412829E-16, 205.0000000000000284 ) ) ;
#237 = EDGE_CURVE ( 'NONE', #163, #232, #128, .T. ) ;
#238 = FACE_OUTER_BOUND ( 'NONE', #248, .T. ) ;
#239 = SECURITY_CLASSIFICATION_LEVEL ( 'unclassified' ) ;
#240 = DIRECTION ( 'NONE',  ( -0.000000000000000000, -0.000000000000000000, -1.000000000000000000 ) ) ;
#241 = AXIS2_PLACEMENT_3D ( 'NONE', #56, #266, #105 ) ;
#242 = AXIS2_PLACEMENT_3D ( 'NONE', #49, #123, #149 ) ;
#243 = CARTESIAN_POINT ( 'NONE',  ( -7.000000000000000000, 0.000000000000000000, 5.000000000000000000 ) ) ;
#244 = DIRECTION ( 'NONE',  ( 1.000000000000000000, 0.000000000000000000, 0.000000000000000000 ) ) ;
#245 = CLOSED_SHELL ( 'NONE', ( #265, #220, #46, #297, #28, #171, #210, #113, #215 ) ) ;
#246 = ORIENTED_EDGE ( 'NONE', *, *, #40, .T. ) ;
#247 = CIRCLE ( 'NONE', #274, 7.000000000000000000 ) ;
#248 = EDGE_LOOP ( 'NONE', ( #249, #306, #160, #246 ) ) ;
#249 = ORIENTED_EDGE ( 'NONE', *, *, #110, .F. ) ;
#250 = CIRCLE ( 'NONE', #55, 4.000000000000000000 ) ;
#251 = CARTESIAN_POINT ( 'NONE',  ( 0.000000000000000000, 0.000000000000000000, 0.000000000000000000 ) ) ;
#252 = EDGE_CURVE ( 'NONE', #146, #140, #154, .T. ) ;
#253 = DIRECTION ( 'NONE',  ( 1.000000000000000000, 0.000000000000000000, -0.000000000000000000 ) ) ;
#254 = APPLICATION_CONTEXT ( 'configuration controlled 3d designs of mechanical parts and assemblies' ) ;
#255 = ORIENTED_EDGE ( 'NONE', *, *, #5, .F. ) ;
#256 = PLANE ( 'NONE',  #263 ) ;
#257 = LOCAL_TIME ( 12, 3, 16.00000000000000000, #191 ) ;
#258 = AXIS2_PLACEMENT_3D ( 'NONE', #299, #209, #305 ) ;
#259 = CARTESIAN_POINT ( 'NONE',  ( 0.000000000000000000, 0.000000000000000000, 5.000000000000000000 ) ) ;
#260 = EDGE_LOOP ( 'NONE', ( #115, #86 ) ) ;
#261 = CALENDAR_DATE ( 2022, 7, 7 ) ;
#262 = SHAPE_DEFINITION_REPRESENTATION ( #31, #141 ) ;
#263 = AXIS2_PLACEMENT_3D ( 'NONE', #24, #19, #69 ) ;
#264 = CALENDAR_DATE ( 2022, 7, 7 ) ;
#265 = ADVANCED_FACE ( 'NONE', ( #307 ), #228, .F. ) ;
#266 = DIRECTION ( 'NONE',  ( -0.000000000000000000, -0.000000000000000000, -1.000000000000000000 ) ) ;
#267 = CARTESIAN_POINT ( 'NONE',  ( 0.000000000000000000, 0.000000000000000000, 0.000000000000000000 ) ) ;
#268 = FACE_OUTER_BOUND ( 'NONE', #121, .T. ) ;
#269 = CYLINDRICAL_SURFACE ( 'NONE', #13, 7.000000000000000000 ) ;
#270 = CARTESIAN_POINT ( 'NONE',  ( 4.200000000000000178, 0.000000000000000000, 5.000000000000005329 ) ) ;
#271 = DIRECTION ( 'NONE',  ( 1.000000000000000000, 0.000000000000000000, 0.000000000000000000 ) ) ;
#272 = DIRECTION ( 'NONE',  ( 0.000000000000000000, 0.000000000000000000, 1.000000000000000000 ) ) ;
#273 = APPLICATION_CONTEXT ( 'configuration controlled 3d designs of mechanical parts and assemblies' ) ;
#274 = AXIS2_PLACEMENT_3D ( 'NONE', #71, #42, #166 ) ;
#275 = CARTESIAN_POINT ( 'NONE',  ( 0.000000000000000000, 0.000000000000000000, 205.0000000000000284 ) ) ;
#276 = CARTESIAN_POINT ( 'NONE',  ( 4.200000000000000178, 0.000000000000000000, 5.200000000000009948 ) ) ;
#277 = ORIENTED_EDGE ( 'NONE', *, *, #110, .T. ) ;
#278 = DIRECTION ( 'NONE',  ( -1.000000000000000000, 1.224646799147353454E-16, 0.000000000000000000 ) ) ;
#279 = CC_DESIGN_SECURITY_CLASSIFICATION ( #301, ( #286 ) ) ;
#280 = TOROIDAL_SURFACE ( 'NONE', #258, 4.200000000000000178, 0.2000000000000000111 ) ;
#281 = ORIENTED_EDGE ( 'NONE', *, *, #153, .F. ) ;
#282 = DIRECTION ( 'NONE',  ( 1.224646799147353207E-16, 1.000000000000000000, -0.000000000000000000 ) ) ;
#283 = EDGE_CURVE ( 'NONE', #235, #45, #219, .T. ) ;
#284 = DATE_AND_TIME ( #261, #257 ) ;
#285 = CIRCLE ( 'NONE', #192, 7.000000000000000000 ) ;
#286 = PRODUCT_DEFINITION_FORMATION_WITH_SPECIFIED_SOURCE ( 'LIBOVOLNÝ', '', #77, .NOT_KNOWN. ) ;
#287 = AXIS2_PLACEMENT_3D ( 'NONE', #267, #156, #83 ) ;
#288 = PERSON_AND_ORGANIZATION_ROLE ( 'creator' ) ;
#289 =( LENGTH_UNIT ( ) NAMED_UNIT ( * ) SI_UNIT ( .MILLI., .METRE. ) );
#290 = APPROVAL_ROLE ( '' ) ;
#291 = PERSON_AND_ORGANIZATION ( #96, #63 ) ;
#292 = DIRECTION ( 'NONE',  ( 0.000000000000000000, 0.000000000000000000, 1.000000000000000000 ) ) ;
#293 = CARTESIAN_POINT ( 'NONE',  ( -4.000000000000000000, 0.000000000000000000, 205.0000000000000284 ) ) ;
#294 = LOCAL_TIME ( 12, 3, 16.00000000000000000, #58 ) ;
#295 = FACE_OUTER_BOUND ( 'NONE', #143, .T. ) ;
#296 = AXIS2_PLACEMENT_3D ( 'NONE', #152, #282, #278 ) ;
#297 = ADVANCED_FACE ( 'NONE', ( #268 ), #7, .T. ) ;
#298 = CARTESIAN_POINT ( 'NONE',  ( 0.000000000000000000, 0.000000000000000000, 5.000000000000000000 ) ) ;
#299 = CARTESIAN_POINT ( 'NONE',  ( 0.000000000000000000, 0.000000000000000000, 5.200000000000009948 ) ) ;
#300 = MANIFOLD_SOLID_BREP ( 'Zaoblit1', #245 ) ;
#301 = SECURITY_CLASSIFICATION ( '', '', #239 ) ;
#302 = ORIENTED_EDGE ( 'NONE', *, *, #12, .T. ) ;
#303 = FACE_OUTER_BOUND ( 'NONE', #182, .T. ) ;
#304 = ORIENTED_EDGE ( 'NONE', *, *, #138, .T. ) ;
#305 = DIRECTION ( 'NONE',  ( 1.000000000000000000, 0.000000000000000000, 0.000000000000000000 ) ) ;
#306 = ORIENTED_EDGE ( 'NONE', *, *, #252, .F. ) ;
#307 = FACE_OUTER_BOUND ( 'NONE', #181, .T. ) ;
ENDSEC;
END-ISO-10303-21;
