ISO-10303-21;
HEADER;
FILE_DESCRIPTION (( 'STEP AP203' ),
    '1' );
FILE_NAME ('4ef1.STEP',
    '2022-07-07T09:39:48',
    ( '' ),
    ( '' ),
    'SwSTEP 2.0',
    'SolidWorks 2019',
    '' );
FILE_SCHEMA (( 'CONFIG_CONTROL_DESIGN' ));
ENDSEC;

DATA;
#1 = CARTESIAN_POINT ( 'NONE',  ( 0.000000000000000000, 0.000000000000000000, 807.0000000000000000 ) ) ;
#2 = CARTESIAN_POINT ( 'NONE',  ( 7.200000000000001066, 0.000000000000000000, 7.199999999999984190 ) ) ;
#3 = ORIENTED_EDGE ( 'NONE', *, *, #142, .F. ) ;
#4 = EDGE_LOOP ( 'NONE', ( #76, #200 ) ) ;
#5 = ORIENTED_EDGE ( 'NONE', *, *, #93, .T. ) ;
#6 = EDGE_LOOP ( 'NONE', ( #7, #31, #198, #242 ) ) ;
#7 = ORIENTED_EDGE ( 'NONE', *, *, #261, .F. ) ;
#8 = VERTEX_POINT ( 'NONE', #145 ) ;
#9 = ADVANCED_FACE ( 'NONE', ( #268 ), #236, .T. ) ;
#10 = AXIS2_PLACEMENT_3D ( 'NONE', #139, #285, #78 ) ;
#11 = AXIS2_PLACEMENT_3D ( 'NONE', #14, #160, #113 ) ;
#12 = CIRCLE ( 'NONE', #276, 0.1999999999999996503 ) ;
#13 = APPLICATION_PROTOCOL_DEFINITION ( 'international standard', 'config_control_design', 1994, #118 ) ;
#14 = CARTESIAN_POINT ( 'NONE',  ( 0.000000000000000000, 0.000000000000000000, 7.000000000000000000 ) ) ;
#15 = MANIFOLD_SOLID_BREP ( 'Zaoblit1', #284 ) ;
#16 = FACE_OUTER_BOUND ( 'NONE', #130, .T. ) ;
#17 = EDGE_CURVE ( 'NONE', #128, #240, #12, .T. ) ;
#18 = APPROVAL_STATUS ( 'not_yet_approved' ) ;
#19 = COORDINATED_UNIVERSAL_TIME_OFFSET ( 1, 0, .AHEAD. ) ;
#20 = FACE_OUTER_BOUND ( 'NONE', #220, .T. ) ;
#21 = PRODUCT_DEFINITION ( 'NEZNÁMÝ', '', #182, #109 ) ;
#22 = CARTESIAN_POINT ( 'NONE',  ( -11.00000000000000000, 0.000000000000000000, 7.000000000000000000 ) ) ;
#23 = CARTESIAN_POINT ( 'NONE',  ( -7.000000000000000888, 0.000000000000000000, 7.199999999999984190 ) ) ;
#24 = PERSON_AND_ORGANIZATION_ROLE ( 'creator' ) ;
#25 = AXIS2_PLACEMENT_3D ( 'NONE', #199, #123, #295 ) ;
#26 = ORIENTED_EDGE ( 'NONE', *, *, #275, .T. ) ;
#27 = DIRECTION ( 'NONE',  ( -0.000000000000000000, -0.000000000000000000, -1.000000000000000000 ) ) ;
#28 = DIRECTION ( 'NONE',  ( -1.000000000000000000, 1.224646799147358384E-16, 0.000000000000000000 ) ) ;
#29 = ORIENTED_EDGE ( 'NONE', *, *, #156, .F. ) ;
#30 = CC_DESIGN_DATE_AND_TIME_ASSIGNMENT ( #286, #187, ( #70 ) ) ;
#31 = ORIENTED_EDGE ( 'NONE', *, *, #151, .T. ) ;
#32 = ORIENTED_EDGE ( 'NONE', *, *, #83, .T. ) ;
#33 = ORIENTED_EDGE ( 'NONE', *, *, #17, .F. ) ;
#34 = ORIENTED_EDGE ( 'NONE', *, *, #112, .F. ) ;
#35 = EDGE_CURVE ( 'NONE', #84, #8, #190, .T. ) ;
#36 = CC_DESIGN_APPROVAL ( #296, ( #21 ) ) ;
#37 = DIRECTION ( 'NONE',  ( 1.000000000000000000, 0.000000000000000000, 0.000000000000000000 ) ) ;
#38 = AXIS2_PLACEMENT_3D ( 'NONE', #49, #280, #121 ) ;
#39 = AXIS2_PLACEMENT_3D ( 'NONE', #289, #54, #178 ) ;
#40 = DIRECTION ( 'NONE',  ( 0.000000000000000000, 0.000000000000000000, 1.000000000000000000 ) ) ;
#41 = EDGE_CURVE ( 'NONE', #80, #218, #271, .T. ) ;
#42 = PERSON_AND_ORGANIZATION ( #125, #108 ) ;
#43 = PLANE ( 'NONE',  #158 ) ;
#44 = PERSON_AND_ORGANIZATION ( #125, #108 ) ;
#45 = CC_DESIGN_APPROVAL ( #244, ( #70 ) ) ;
#46 = FACE_OUTER_BOUND ( 'NONE', #6, .T. ) ;
#47 = CALENDAR_DATE ( 2022, 7, 7 ) ;
#48 = SECURITY_CLASSIFICATION_LEVEL ( 'unclassified' ) ;
#49 = CARTESIAN_POINT ( 'NONE',  ( 0.000000000000000000, 0.000000000000000000, 7.199999999999984190 ) ) ;
#50 = DATE_TIME_ROLE ( 'creation_date' ) ;
#51 = DIRECTION ( 'NONE',  ( 1.000000000000000000, 0.000000000000000000, -0.000000000000000000 ) ) ;
#52 = AXIS2_PLACEMENT_3D ( 'NONE', #1, #147, #51 ) ;
#53 = DIRECTION ( 'NONE',  ( -0.000000000000000000, -0.000000000000000000, -1.000000000000000000 ) ) ;
#54 = DIRECTION ( 'NONE',  ( -0.000000000000000000, -0.000000000000000000, -1.000000000000000000 ) ) ;
#55 = ORIENTED_EDGE ( 'NONE', *, *, #279, .F. ) ;
#56 = CYLINDRICAL_SURFACE ( 'NONE', #39, 7.000000000000000888 ) ;
#57 = ORIENTED_EDGE ( 'NONE', *, *, #41, .F. ) ;
#58 = DIRECTION ( 'NONE',  ( -0.000000000000000000, -0.000000000000000000, -1.000000000000000000 ) ) ;
#59 = VECTOR ( 'NONE', #58, 1000.000000000000000 ) ;
#60 = PRODUCT_RELATED_PRODUCT_CATEGORY ( 'detail', '', ( #63 ) ) ;
#61 = CARTESIAN_POINT ( 'NONE',  ( 0.000000000000000000, 0.000000000000000000, 7.000000000000000000 ) ) ;
#62 = ADVANCED_FACE ( 'NONE', ( #196 ), #56, .T. ) ;
#63 = PRODUCT ( '4ef1', '4ef1', '', ( #87 ) ) ;
#64 = CARTESIAN_POINT ( 'NONE',  ( 0.000000000000000000, 0.000000000000000000, 7.000000000000000000 ) ) ;
#65 =( GEOMETRIC_REPRESENTATION_CONTEXT ( 3 ) GLOBAL_UNCERTAINTY_ASSIGNED_CONTEXT ( ( #223 ) ) GLOBAL_UNIT_ASSIGNED_CONTEXT ( ( #88, #137, #159 ) ) REPRESENTATION_CONTEXT ( 'NONE', 'WORKASPACE' ) );
#66 = EDGE_CURVE ( 'NONE', #8, #128, #173, .T. ) ;
#67 = DIRECTION ( 'NONE',  ( 0.000000000000000000, 0.000000000000000000, 1.000000000000000000 ) ) ;
#68 = LINE ( 'NONE', #256, #96 ) ;
#69 = PERSON_AND_ORGANIZATION_ROLE ( 'creator' ) ;
#70 = SECURITY_CLASSIFICATION ( '', '', #48 ) ;
#71 = FACE_OUTER_BOUND ( 'NONE', #219, .T. ) ;
#72 = VECTOR ( 'NONE', #307, 1000.000000000000000 ) ;
#73 = DIRECTION ( 'NONE',  ( 1.000000000000000000, 0.000000000000000000, 0.000000000000000000 ) ) ;
#74 = APPROVAL_STATUS ( 'not_yet_approved' ) ;
#75 = CARTESIAN_POINT ( 'NONE',  ( 0.000000000000000000, 0.000000000000000000, 7.000000000000000000 ) ) ;
#76 = ORIENTED_EDGE ( 'NONE', *, *, #142, .T. ) ;
#77 = AXIS2_PLACEMENT_3D ( 'NONE', #61, #164, #73 ) ;
#78 = DIRECTION ( 'NONE',  ( 1.000000000000000000, 0.000000000000000000, 0.000000000000000000 ) ) ;
#79 = EDGE_LOOP ( 'NONE', ( #32, #26 ) ) ;
#80 = VERTEX_POINT ( 'NONE', #179 ) ;
#81 = ORIENTED_EDGE ( 'NONE', *, *, #151, .F. ) ;
#82 = DIRECTION ( 'NONE',  ( 1.224646799147353207E-16, 1.000000000000000000, -0.000000000000000000 ) ) ;
#83 = EDGE_CURVE ( 'NONE', #175, #240, #224, .T. ) ;
#84 = VERTEX_POINT ( 'NONE', #301 ) ;
#85 = CIRCLE ( 'NONE', #252, 7.000000000000000888 ) ;
#86 = APPLICATION_CONTEXT ( 'configuration controlled 3d designs of mechanical parts and assemblies' ) ;
#87 = MECHANICAL_CONTEXT ( 'NONE', #86, 'mechanical' ) ;
#88 =( LENGTH_UNIT ( ) NAMED_UNIT ( * ) SI_UNIT ( .MILLI., .METRE. ) );
#89 = ADVANCED_FACE ( 'NONE', ( #94 ), #246, .F. ) ;
#90 = DIRECTION ( 'NONE',  ( 0.000000000000000000, 0.000000000000000000, 1.000000000000000000 ) ) ;
#91 = CARTESIAN_POINT ( 'NONE',  ( 7.000000000000000888, 8.572527594031474176E-16, 7.199999999999984190 ) ) ;
#92 = PERSON_AND_ORGANIZATION ( #125, #108 ) ;
#93 = EDGE_CURVE ( 'NONE', #218, #80, #254, .T. ) ;
#94 = FACE_OUTER_BOUND ( 'NONE', #293, .T. ) ;
#95 = APPROVAL_DATE_TIME ( #229, #222 ) ;
#96 = VECTOR ( 'NONE', #283, 1000.000000000000000 ) ;
#97 = CARTESIAN_POINT ( 'NONE',  ( 0.000000000000000000, 0.000000000000000000, 807.0000000000000000 ) ) ;
#98 = AXIS2_PLACEMENT_3D ( 'NONE', #2, #119, #258 ) ;
#99 = COORDINATED_UNIVERSAL_TIME_OFFSET ( 1, 0, .AHEAD. ) ;
#100 = CARTESIAN_POINT ( 'NONE',  ( 7.200000000000001066, 0.000000000000000000, 6.999999999999992006 ) ) ;
#101 = EDGE_CURVE ( 'NONE', #8, #84, #211, .T. ) ;
#102 = CARTESIAN_POINT ( 'NONE',  ( 0.000000000000000000, 0.000000000000000000, 0.000000000000000000 ) ) ;
#103 = DIRECTION ( 'NONE',  ( 0.000000000000000000, 0.000000000000000000, 1.000000000000000000 ) ) ;
#104 = DIRECTION ( 'NONE',  ( 0.000000000000000000, 0.000000000000000000, 1.000000000000000000 ) ) ;
#105 = ORIENTED_EDGE ( 'NONE', *, *, #35, .F. ) ;
#106 = VERTEX_POINT ( 'NONE', #193 ) ;
#107 = ORIENTED_EDGE ( 'NONE', *, *, #101, .T. ) ;
#108 = ORGANIZATION ( 'NEURÈENÝ', 'NEURÈENÝ', '' ) ;
#109 = DESIGN_CONTEXT ( 'detailed design', #118, 'design' ) ;
#110 = ADVANCED_FACE ( 'NONE', ( #169 ), #140, .T. ) ;
#111 = AXIS2_PLACEMENT_3D ( 'NONE', #260, #27, #230 ) ;
#112 = EDGE_CURVE ( 'NONE', #213, #175, #299, .T. ) ;
#113 = DIRECTION ( 'NONE',  ( 1.000000000000000000, 0.000000000000000000, 0.000000000000000000 ) ) ;
#114 = DATE_AND_TIME ( #135, #144 ) ;
#115 = FACE_OUTER_BOUND ( 'NONE', #4, .T. ) ;
#116 = LOCAL_TIME ( 11, 39, 48.00000000000000000, #99 ) ;
#117 = CC_DESIGN_SECURITY_CLASSIFICATION ( #70, ( #182 ) ) ;
#118 = APPLICATION_CONTEXT ( 'configuration controlled 3d designs of mechanical parts and assemblies' ) ;
#119 = DIRECTION ( 'NONE',  ( 0.000000000000000000, -1.000000000000000000, 0.000000000000000000 ) ) ;
#120 = CARTESIAN_POINT ( 'NONE',  ( -11.00000000000000000, 0.000000000000000000, 7.000000000000000000 ) ) ;
#121 = DIRECTION ( 'NONE',  ( 1.000000000000000000, 0.000000000000000000, 0.000000000000000000 ) ) ;
#122 = VECTOR ( 'NONE', #207, 1000.000000000000000 ) ;
#123 = DIRECTION ( 'NONE',  ( 0.000000000000000000, 0.000000000000000000, 1.000000000000000000 ) ) ;
#124 = CYLINDRICAL_SURFACE ( 'NONE', #153, 11.00000000000000000 ) ;
#125 = PERSON ( 'NEURÈENÝ', 'NEURÈENÝ', 'NEURÈENÝ', ('NEURÈENÝ'), ('NEURÈENÝ'), ('NEURÈENÝ') ) ;
#126 = EDGE_LOOP ( 'NONE', ( #241, #267, #148, #292 ) ) ;
#127 = ORIENTED_EDGE ( 'NONE', *, *, #93, .F. ) ;
#128 = VERTEX_POINT ( 'NONE', #23 ) ;
#129 = ORIENTED_EDGE ( 'NONE', *, *, #156, .T. ) ;
#130 = EDGE_LOOP ( 'NONE', ( #127, #57 ) ) ;
#131 = ADVANCED_FACE ( 'NONE', ( #71 ), #263, .F. ) ;
#132 = AXIS2_PLACEMENT_3D ( 'NONE', #157, #90, #225 ) ;
#133 = COORDINATED_UNIVERSAL_TIME_OFFSET ( 1, 0, .AHEAD. ) ;
#134 = CIRCLE ( 'NONE', #180, 11.00000000000000000 ) ;
#135 = CALENDAR_DATE ( 2022, 7, 7 ) ;
#136 = CARTESIAN_POINT ( 'NONE',  ( 0.000000000000000000, 0.000000000000000000, 7.000000000000000000 ) ) ;
#137 =( NAMED_UNIT ( * ) PLANE_ANGLE_UNIT ( ) SI_UNIT ( $, .RADIAN. ) );
#138 = SHAPE_DEFINITION_REPRESENTATION ( #250, #150 ) ;
#139 = CARTESIAN_POINT ( 'NONE',  ( 0.000000000000000000, 0.000000000000000000, 807.0000000000000000 ) ) ;
#140 = CYLINDRICAL_SURFACE ( 'NONE', #111, 11.00000000000000000 ) ;
#141 = PERSON_AND_ORGANIZATION_ROLE ( 'classification_officer' ) ;
#142 = EDGE_CURVE ( 'NONE', #152, #106, #134, .T. ) ;
#143 = DIRECTION ( 'NONE',  ( 1.000000000000000000, 0.000000000000000000, 0.000000000000000000 ) ) ;
#144 = LOCAL_TIME ( 11, 39, 48.00000000000000000, #133 ) ;
#145 = CARTESIAN_POINT ( 'NONE',  ( -7.000000000000000888, 0.000000000000000000, 807.0000000000000000 ) ) ;
#146 = CARTESIAN_POINT ( 'NONE',  ( 0.000000000000000000, 0.000000000000000000, 7.199999999999984190 ) ) ;
#147 = DIRECTION ( 'NONE',  ( 0.000000000000000000, 0.000000000000000000, 1.000000000000000000 ) ) ;
#148 = ORIENTED_EDGE ( 'NONE', *, *, #66, .T. ) ;
#149 = ORIENTED_EDGE ( 'NONE', *, *, #66, .F. ) ;
#150 = ADVANCED_BREP_SHAPE_REPRESENTATION ( '4ef1', ( #15, #234 ), #65 ) ;
#151 = EDGE_CURVE ( 'NONE', #106, #80, #68, .T. ) ;
#152 = VERTEX_POINT ( 'NONE', #22 ) ;
#153 = AXIS2_PLACEMENT_3D ( 'NONE', #75, #214, #171 ) ;
#154 = ORIENTED_EDGE ( 'NONE', *, *, #168, .T. ) ;
#155 = CC_DESIGN_PERSON_AND_ORGANIZATION_ASSIGNMENT ( #42, #226, ( #182 ) ) ;
#156 = EDGE_CURVE ( 'NONE', #213, #128, #248, .T. ) ;
#157 = CARTESIAN_POINT ( 'NONE',  ( 0.000000000000000000, 0.000000000000000000, 0.000000000000000000 ) ) ;
#158 = AXIS2_PLACEMENT_3D ( 'NONE', #136, #67, #185 ) ;
#159 =( NAMED_UNIT ( * ) SI_UNIT ( $, .STERADIAN. ) SOLID_ANGLE_UNIT ( ) );
#160 = DIRECTION ( 'NONE',  ( -0.000000000000000000, -0.000000000000000000, -1.000000000000000000 ) ) ;
#161 = EDGE_CURVE ( 'NONE', #152, #218, #262, .T. ) ;
#162 = DIRECTION ( 'NONE',  ( 1.000000000000000000, 0.000000000000000000, 0.000000000000000000 ) ) ;
#163 = APPROVAL_ROLE ( '' ) ;
#164 = DIRECTION ( 'NONE',  ( -0.000000000000000000, -0.000000000000000000, -1.000000000000000000 ) ) ;
#165 = PERSON_AND_ORGANIZATION ( #125, #108 ) ;
#166 = CARTESIAN_POINT ( 'NONE',  ( 0.000000000000000000, 0.000000000000000000, 7.199999999999984190 ) ) ;
#167 = APPROVAL_ROLE ( '' ) ;
#168 = EDGE_CURVE ( 'NONE', #84, #213, #209, .T. ) ;
#169 = FACE_OUTER_BOUND ( 'NONE', #177, .T. ) ;
#170 = COORDINATED_UNIVERSAL_TIME_OFFSET ( 1, 0, .AHEAD. ) ;
#171 = DIRECTION ( 'NONE',  ( -1.000000000000000000, 0.000000000000000000, 0.000000000000000000 ) ) ;
#172 = APPROVAL_PERSON_ORGANIZATION ( #183, #296, #251 ) ;
#173 = LINE ( 'NONE', #270, #59 ) ;
#174 = DIRECTION ( 'NONE',  ( 1.000000000000000000, 0.000000000000000000, 0.000000000000000000 ) ) ;
#175 = VERTEX_POINT ( 'NONE', #100 ) ;
#176 = ADVANCED_FACE ( 'NONE', ( #20 ), #288, .T. ) ;
#177 = EDGE_LOOP ( 'NONE', ( #81, #3, #239, #5 ) ) ;
#178 = DIRECTION ( 'NONE',  ( -1.000000000000000000, 0.000000000000000000, 0.000000000000000000 ) ) ;
#179 = CARTESIAN_POINT ( 'NONE',  ( 11.00000000000000000, 1.347111479062088405E-15, 0.000000000000000000 ) ) ;
#180 = AXIS2_PLACEMENT_3D ( 'NONE', #212, #195, #174 ) ;
#181 = CC_DESIGN_PERSON_AND_ORGANIZATION_ASSIGNMENT ( #92, #141, ( #70 ) ) ;
#182 = PRODUCT_DEFINITION_FORMATION_WITH_SPECIFIED_SOURCE ( 'LIBOVOLNÝ', '', #63, .NOT_KNOWN. ) ;
#183 = PERSON_AND_ORGANIZATION ( #125, #108 ) ;
#184 = LOCAL_TIME ( 11, 39, 48.00000000000000000, #19 ) ;
#185 = DIRECTION ( 'NONE',  ( 1.000000000000000000, 0.000000000000000000, -0.000000000000000000 ) ) ;
#186 = CARTESIAN_POINT ( 'NONE',  ( -11.00000000000000000, 0.000000000000000000, 0.000000000000000000 ) ) ;
#187 = DATE_TIME_ROLE ( 'classification_date' ) ;
#188 = COORDINATED_UNIVERSAL_TIME_OFFSET ( 1, 0, .AHEAD. ) ;
#189 = CALENDAR_DATE ( 2022, 7, 7 ) ;
#190 = CIRCLE ( 'NONE', #25, 7.000000000000000888 ) ;
#191 = DIRECTION ( 'NONE',  ( -1.000000000000000000, 0.000000000000000000, 0.000000000000000000 ) ) ;
#192 = APPROVAL_STATUS ( 'not_yet_approved' ) ;
#193 = CARTESIAN_POINT ( 'NONE',  ( 11.00000000000000000, 1.347111479062088405E-15, 7.000000000000000000 ) ) ;
#194 = CARTESIAN_POINT ( 'NONE',  ( -7.200000000000001066, 8.817456953860944275E-16, 7.199999999999984190 ) ) ;
#195 = DIRECTION ( 'NONE',  ( 0.000000000000000000, 0.000000000000000000, 1.000000000000000000 ) ) ;
#196 = FACE_OUTER_BOUND ( 'NONE', #126, .T. ) ;
#197 = CC_DESIGN_PERSON_AND_ORGANIZATION_ASSIGNMENT ( #300, #253, ( #63 ) ) ;
#198 = ORIENTED_EDGE ( 'NONE', *, *, #41, .T. ) ;
#199 = CARTESIAN_POINT ( 'NONE',  ( 0.000000000000000000, 0.000000000000000000, 807.0000000000000000 ) ) ;
#200 = ORIENTED_EDGE ( 'NONE', *, *, #261, .T. ) ;
#201 = LOCAL_TIME ( 11, 39, 48.00000000000000000, #170 ) ;
#202 = AXIS2_PLACEMENT_3D ( 'NONE', #97, #53, #191 ) ;
#203 = ADVANCED_FACE ( 'NONE', ( #46 ), #124, .T. ) ;
#204 = DIRECTION ( 'NONE',  ( 0.000000000000000000, 0.000000000000000000, 1.000000000000000000 ) ) ;
#205 = CARTESIAN_POINT ( 'NONE',  ( 0.000000000000000000, 0.000000000000000000, 0.000000000000000000 ) ) ;
#206 = CALENDAR_DATE ( 2022, 7, 7 ) ;
#207 = DIRECTION ( 'NONE',  ( -0.000000000000000000, -0.000000000000000000, -1.000000000000000000 ) ) ;
#208 = APPROVAL_DATE_TIME ( #232, #244 ) ;
#209 = LINE ( 'NONE', #304, #122 ) ;
#210 = AXIS2_PLACEMENT_3D ( 'NONE', #266, #237, #233 ) ;
#211 = CIRCLE ( 'NONE', #10, 7.000000000000000888 ) ;
#212 = CARTESIAN_POINT ( 'NONE',  ( 0.000000000000000000, 0.000000000000000000, 7.000000000000000000 ) ) ;
#213 = VERTEX_POINT ( 'NONE', #91 ) ;
#214 = DIRECTION ( 'NONE',  ( -0.000000000000000000, -0.000000000000000000, -1.000000000000000000 ) ) ;
#215 = CC_DESIGN_PERSON_AND_ORGANIZATION_ASSIGNMENT ( #302, #69, ( #182 ) ) ;
#216 = ORIENTED_EDGE ( 'NONE', *, *, #83, .F. ) ;
#217 = LOCAL_TIME ( 11, 39, 48.00000000000000000, #188 ) ;
#218 = VERTEX_POINT ( 'NONE', #186 ) ;
#219 = EDGE_LOOP ( 'NONE', ( #33, #29, #265, #269 ) ) ;
#220 = EDGE_LOOP ( 'NONE', ( #105, #154, #129, #149 ) ) ;
#221 = AXIS2_PLACEMENT_3D ( 'NONE', #64, #204, #162 ) ;
#222 = APPROVAL ( #192, 'NEURÈENÝ' ) ;
#223 = UNCERTAINTY_MEASURE_WITH_UNIT (LENGTH_MEASURE( 1.000000000000000082E-05 ), #88, 'distance_accuracy_value', 'NONE');
#224 = CIRCLE ( 'NONE', #77, 7.200000000000001066 ) ;
#225 = DIRECTION ( 'NONE',  ( 1.000000000000000000, 0.000000000000000000, -0.000000000000000000 ) ) ;
#226 = PERSON_AND_ORGANIZATION_ROLE ( 'design_supplier' ) ;
#227 = APPROVAL_PERSON_ORGANIZATION ( #44, #222, #163 ) ;
#228 = FACE_BOUND ( 'NONE', #79, .T. ) ;
#229 = DATE_AND_TIME ( #259, #201 ) ;
#230 = DIRECTION ( 'NONE',  ( -1.000000000000000000, 0.000000000000000000, 0.000000000000000000 ) ) ;
#231 = DIRECTION ( 'NONE',  ( 1.000000000000000000, 0.000000000000000000, 0.000000000000000000 ) ) ;
#232 = DATE_AND_TIME ( #189, #116 ) ;
#233 = DIRECTION ( 'NONE',  ( 1.000000000000000000, 0.000000000000000000, 0.000000000000000000 ) ) ;
#234 = AXIS2_PLACEMENT_3D ( 'NONE', #205, #297, #37 ) ;
#235 = DATE_AND_TIME ( #47, #184 ) ;
#236 = PLANE ( 'NONE',  #52 ) ;
#237 = DIRECTION ( 'NONE',  ( 0.000000000000000000, 0.000000000000000000, 1.000000000000000000 ) ) ;
#238 = CC_DESIGN_PERSON_AND_ORGANIZATION_ASSIGNMENT ( #305, #24, ( #21 ) ) ;
#239 = ORIENTED_EDGE ( 'NONE', *, *, #161, .T. ) ;
#240 = VERTEX_POINT ( 'NONE', #277 ) ;
#241 = ORIENTED_EDGE ( 'NONE', *, *, #168, .F. ) ;
#242 = ORIENTED_EDGE ( 'NONE', *, *, #161, .F. ) ;
#243 = AXIS2_PLACEMENT_3D ( 'NONE', #102, #104, #294 ) ;
#244 = APPROVAL ( #74, 'NEURÈENÝ' ) ;
#245 = EDGE_LOOP ( 'NONE', ( #107, #272 ) ) ;
#246 = TOROIDAL_SURFACE ( 'NONE', #306, 7.200000000000001066, 0.2000000000000000111 ) ;
#247 = ORIENTED_EDGE ( 'NONE', *, *, #17, .T. ) ;
#248 = CIRCLE ( 'NONE', #38, 7.000000000000000888 ) ;
#249 = ADVANCED_FACE ( 'NONE', ( #16 ), #274, .F. ) ;
#250 = PRODUCT_DEFINITION_SHAPE ( 'NONE', 'NONE',  #21 ) ;
#251 = APPROVAL_ROLE ( '' ) ;
#252 = AXIS2_PLACEMENT_3D ( 'NONE', #298, #40, #278 ) ;
#253 = PERSON_AND_ORGANIZATION_ROLE ( 'design_owner' ) ;
#254 = CIRCLE ( 'NONE', #210, 11.00000000000000000 ) ;
#255 = APPLICATION_PROTOCOL_DEFINITION ( 'international standard', 'config_control_design', 1994, #86 ) ;
#256 = CARTESIAN_POINT ( 'NONE',  ( 11.00000000000000000, 1.347111479062088405E-15, 7.000000000000000000 ) ) ;
#257 = ADVANCED_FACE ( 'NONE', ( #228, #115 ), #43, .T. ) ;
#258 = DIRECTION ( 'NONE',  ( 0.000000000000000000, 0.000000000000000000, -1.000000000000000000 ) ) ;
#259 = CALENDAR_DATE ( 2022, 7, 7 ) ;
#260 = CARTESIAN_POINT ( 'NONE',  ( 0.000000000000000000, 0.000000000000000000, 7.000000000000000000 ) ) ;
#261 = EDGE_CURVE ( 'NONE', #106, #152, #282, .T. ) ;
#262 = LINE ( 'NONE', #120, #72 ) ;
#263 = TOROIDAL_SURFACE ( 'NONE', #273, 7.200000000000001066, 0.2000000000000000111 ) ;
#264 = APPROVAL_PERSON_ORGANIZATION ( #165, #244, #167 ) ;
#265 = ORIENTED_EDGE ( 'NONE', *, *, #112, .T. ) ;
#266 = CARTESIAN_POINT ( 'NONE',  ( 0.000000000000000000, 0.000000000000000000, 0.000000000000000000 ) ) ;
#267 = ORIENTED_EDGE ( 'NONE', *, *, #101, .F. ) ;
#268 = FACE_OUTER_BOUND ( 'NONE', #245, .T. ) ;
#269 = ORIENTED_EDGE ( 'NONE', *, *, #275, .F. ) ;
#270 = CARTESIAN_POINT ( 'NONE',  ( -7.000000000000000888, 0.000000000000000000, 807.0000000000000000 ) ) ;
#271 = CIRCLE ( 'NONE', #243, 11.00000000000000000 ) ;
#272 = ORIENTED_EDGE ( 'NONE', *, *, #35, .T. ) ;
#273 = AXIS2_PLACEMENT_3D ( 'NONE', #146, #103, #231 ) ;
#274 = PLANE ( 'NONE',  #132 ) ;
#275 = EDGE_CURVE ( 'NONE', #240, #175, #303, .T. ) ;
#276 = AXIS2_PLACEMENT_3D ( 'NONE', #194, #82, #28 ) ;
#277 = CARTESIAN_POINT ( 'NONE',  ( -7.200000000000001066, 8.817456953860944275E-16, 6.999999999999992006 ) ) ;
#278 = DIRECTION ( 'NONE',  ( 1.000000000000000000, 0.000000000000000000, 0.000000000000000000 ) ) ;
#279 = EDGE_CURVE ( 'NONE', #128, #213, #85, .T. ) ;
#280 = DIRECTION ( 'NONE',  ( 0.000000000000000000, 0.000000000000000000, 1.000000000000000000 ) ) ;
#281 = APPROVAL_DATE_TIME ( #114, #296 ) ;
#282 = CIRCLE ( 'NONE', #221, 11.00000000000000000 ) ;
#283 = DIRECTION ( 'NONE',  ( -0.000000000000000000, -0.000000000000000000, -1.000000000000000000 ) ) ;
#284 = CLOSED_SHELL ( 'NONE', ( #89, #176, #203, #110, #257, #249, #62, #9, #131 ) ) ;
#285 = DIRECTION ( 'NONE',  ( 0.000000000000000000, 0.000000000000000000, 1.000000000000000000 ) ) ;
#286 = DATE_AND_TIME ( #206, #217 ) ;
#287 = CC_DESIGN_DATE_AND_TIME_ASSIGNMENT ( #235, #50, ( #21 ) ) ;
#288 = CYLINDRICAL_SURFACE ( 'NONE', #202, 7.000000000000000888 ) ;
#289 = CARTESIAN_POINT ( 'NONE',  ( 0.000000000000000000, 0.000000000000000000, 807.0000000000000000 ) ) ;
#290 = DIRECTION ( 'NONE',  ( 0.000000000000000000, 0.000000000000000000, 1.000000000000000000 ) ) ;
#291 = CC_DESIGN_APPROVAL ( #222, ( #182 ) ) ;
#292 = ORIENTED_EDGE ( 'NONE', *, *, #279, .T. ) ;
#293 = EDGE_LOOP ( 'NONE', ( #55, #247, #216, #34 ) ) ;
#294 = DIRECTION ( 'NONE',  ( 1.000000000000000000, 0.000000000000000000, 0.000000000000000000 ) ) ;
#295 = DIRECTION ( 'NONE',  ( 1.000000000000000000, 0.000000000000000000, 0.000000000000000000 ) ) ;
#296 = APPROVAL ( #18, 'NEURÈENÝ' ) ;
#297 = DIRECTION ( 'NONE',  ( 0.000000000000000000, 0.000000000000000000, 1.000000000000000000 ) ) ;
#298 = CARTESIAN_POINT ( 'NONE',  ( 0.000000000000000000, 0.000000000000000000, 7.199999999999984190 ) ) ;
#299 = CIRCLE ( 'NONE', #98, 0.1999999999999996503 ) ;
#300 = PERSON_AND_ORGANIZATION ( #125, #108 ) ;
#301 = CARTESIAN_POINT ( 'NONE',  ( 7.000000000000000888, 8.572527594031474176E-16, 807.0000000000000000 ) ) ;
#302 = PERSON_AND_ORGANIZATION ( #125, #108 ) ;
#303 = CIRCLE ( 'NONE', #11, 7.200000000000001066 ) ;
#304 = CARTESIAN_POINT ( 'NONE',  ( 7.000000000000000888, 8.572527594031474176E-16, 807.0000000000000000 ) ) ;
#305 = PERSON_AND_ORGANIZATION ( #125, #108 ) ;
#306 = AXIS2_PLACEMENT_3D ( 'NONE', #166, #290, #143 ) ;
#307 = DIRECTION ( 'NONE',  ( -0.000000000000000000, -0.000000000000000000, -1.000000000000000000 ) ) ;
ENDSEC;
END-ISO-10303-21;
