ISO-10303-21;
HEADER;
FILE_DESCRIPTION (( 'STEP AP203' ),
    '1' );
FILE_NAME ('ab7b.STEP',
    '2022-07-07T10:11:13',
    ( '' ),
    ( '' ),
    'SwSTEP 2.0',
    'SolidWorks 2019',
    '' );
FILE_SCHEMA (( 'CONFIG_CONTROL_DESIGN' ));
ENDSEC;

DATA;
#1 = CARTESIAN_POINT ( 'NONE',  ( 3.100000000000000089, 3.796405077356794918E-16, 255.0000000000000000 ) ) ;
#2 = ORIENTED_EDGE ( 'NONE', *, *, #122, .F. ) ;
#3 = EDGE_CURVE ( 'NONE', #245, #67, #222, .T. ) ;
#4 = EDGE_LOOP ( 'NONE', ( #276, #44, #185, #243 ) ) ;
#5 = CIRCLE ( 'NONE', #89, 6.000000000000000888 ) ;
#6 = APPROVAL_STATUS ( 'not_yet_approved' ) ;
#7 = DATE_AND_TIME ( #59, #10 ) ;
#8 = ORIENTED_EDGE ( 'NONE', *, *, #272, .T. ) ;
#9 = EDGE_LOOP ( 'NONE', ( #83, #2, #130, #227 ) ) ;
#10 = LOCAL_TIME ( 12, 11, 13.00000000000000000, #290 ) ;
#11 = CARTESIAN_POINT ( 'NONE',  ( 0.000000000000000000, 0.000000000000000000, 0.000000000000000000 ) ) ;
#12 = CARTESIAN_POINT ( 'NONE',  ( 0.000000000000000000, 0.000000000000000000, 5.000000000000000000 ) ) ;
#13 = ORIENTED_EDGE ( 'NONE', *, *, #177, .F. ) ;
#14 = ADVANCED_FACE ( 'NONE', ( #95 ), #273, .T. ) ;
#15 = DIRECTION ( 'NONE',  ( -0.000000000000000000, -0.000000000000000000, -1.000000000000000000 ) ) ;
#16 = CARTESIAN_POINT ( 'NONE',  ( 0.000000000000000000, 0.000000000000000000, 255.0000000000000000 ) ) ;
#17 = CIRCLE ( 'NONE', #33, 6.000000000000000888 ) ;
#18 = CIRCLE ( 'NONE', #204, 3.299999999999999822 ) ;
#19 = CARTESIAN_POINT ( 'NONE',  ( 0.000000000000000000, 0.000000000000000000, 5.000000000000000000 ) ) ;
#20 = EDGE_CURVE ( 'NONE', #295, #67, #65, .T. ) ;
#21 = CARTESIAN_POINT ( 'NONE',  ( -3.299999999999999822, 4.041334437186265510E-16, 5.000000000000005329 ) ) ;
#22 = CARTESIAN_POINT ( 'NONE',  ( -6.000000000000000888, 0.000000000000000000, 0.000000000000000000 ) ) ;
#23 = AXIS2_PLACEMENT_3D ( 'NONE', #19, #167, #300 ) ;
#24 = APPLICATION_PROTOCOL_DEFINITION ( 'international standard', 'config_control_design', 1994, #176 ) ;
#25 = EDGE_CURVE ( 'NONE', #294, #275, #17, .T. ) ;
#26 = PERSON_AND_ORGANIZATION ( #141, #139 ) ;
#27 = PRODUCT ( 'ab7b', 'ab7b', '', ( #150 ) ) ;
#28 = CIRCLE ( 'NONE', #198, 0.2000000000000000944 ) ;
#29 = DIRECTION ( 'NONE',  ( 0.000000000000000000, 0.000000000000000000, 1.000000000000000000 ) ) ;
#30 = VERTEX_POINT ( 'NONE', #293 ) ;
#31 = PERSON_AND_ORGANIZATION ( #141, #139 ) ;
#32 = CC_DESIGN_DATE_AND_TIME_ASSIGNMENT ( #85, #291, ( #263 ) ) ;
#33 = AXIS2_PLACEMENT_3D ( 'NONE', #11, #40, #186 ) ;
#34 = TOROIDAL_SURFACE ( 'NONE', #172, 3.299999999999999822, 0.2000000000000000111 ) ;
#35 = ORIENTED_EDGE ( 'NONE', *, *, #282, .F. ) ;
#36 = PERSON_AND_ORGANIZATION_ROLE ( 'creator' ) ;
#37 = ORIENTED_EDGE ( 'NONE', *, *, #86, .T. ) ;
#38 = APPROVAL_DATE_TIME ( #7, #288 ) ;
#39 = EDGE_LOOP ( 'NONE', ( #200, #157 ) ) ;
#40 = DIRECTION ( 'NONE',  ( 0.000000000000000000, 0.000000000000000000, 1.000000000000000000 ) ) ;
#41 = CARTESIAN_POINT ( 'NONE',  ( 3.100000000000000089, 3.796405077356794918E-16, 255.0000000000000000 ) ) ;
#42 = CC_DESIGN_APPROVAL ( #292, ( #263 ) ) ;
#43 = EDGE_CURVE ( 'NONE', #30, #294, #91, .T. ) ;
#44 = ORIENTED_EDGE ( 'NONE', *, *, #217, .F. ) ;
#45 = FACE_OUTER_BOUND ( 'NONE', #159, .T. ) ;
#46 = FACE_OUTER_BOUND ( 'NONE', #69, .T. ) ;
#47 = DIRECTION ( 'NONE',  ( 1.000000000000000000, 0.000000000000000000, 0.000000000000000000 ) ) ;
#48 = AXIS2_PLACEMENT_3D ( 'NONE', #68, #253, #208 ) ;
#49 = APPLICATION_CONTEXT ( 'configuration controlled 3d designs of mechanical parts and assemblies' ) ;
#50 = PLANE ( 'NONE',  #79 ) ;
#51 = DIRECTION ( 'NONE',  ( 1.000000000000000000, 0.000000000000000000, 0.000000000000000000 ) ) ;
#52 = CARTESIAN_POINT ( 'NONE',  ( 0.000000000000000000, 0.000000000000000000, 0.000000000000000000 ) ) ;
#53 = AXIS2_PLACEMENT_3D ( 'NONE', #134, #249, #107 ) ;
#54 = ADVANCED_FACE ( 'NONE', ( #64 ), #34, .F. ) ;
#55 = CARTESIAN_POINT ( 'NONE',  ( 0.000000000000000000, 0.000000000000000000, 5.200000000000009948 ) ) ;
#56 = DIRECTION ( 'NONE',  ( -1.000000000000000000, 1.224646799147353207E-16, 0.000000000000000000 ) ) ;
#57 = CARTESIAN_POINT ( 'NONE',  ( 3.299999999999999822, 0.000000000000000000, 5.000000000000005329 ) ) ;
#58 = ADVANCED_FACE ( 'NONE', ( #138 ), #98, .T. ) ;
#59 = CALENDAR_DATE ( 2022, 7, 7 ) ;
#60 = PERSON_AND_ORGANIZATION ( #141, #139 ) ;
#61 = APPROVAL_PERSON_ORGANIZATION ( #302, #292, #215 ) ;
#62 = ORIENTED_EDGE ( 'NONE', *, *, #25, .F. ) ;
#63 = CALENDAR_DATE ( 2022, 7, 7 ) ;
#64 = FACE_OUTER_BOUND ( 'NONE', #4, .T. ) ;
#65 = LINE ( 'NONE', #41, #189 ) ;
#66 = ADVANCED_FACE ( 'NONE', ( #70, #194 ), #169, .T. ) ;
#67 = VERTEX_POINT ( 'NONE', #192 ) ;
#68 = CARTESIAN_POINT ( 'NONE',  ( 0.000000000000000000, 0.000000000000000000, 255.0000000000000000 ) ) ;
#69 = EDGE_LOOP ( 'NONE', ( #126, #180, #270, #267 ) ) ;
#70 = FACE_BOUND ( 'NONE', #39, .T. ) ;
#71 = CC_DESIGN_PERSON_AND_ORGANIZATION_ASSIGNMENT ( #31, #268, ( #183 ) ) ;
#72 = CC_DESIGN_PERSON_AND_ORGANIZATION_ASSIGNMENT ( #125, #239, ( #27 ) ) ;
#73 = DIRECTION ( 'NONE',  ( 0.000000000000000000, 0.000000000000000000, 1.000000000000000000 ) ) ;
#74 = DIRECTION ( 'NONE',  ( -1.000000000000000000, 0.000000000000000000, 0.000000000000000000 ) ) ;
#75 =( GEOMETRIC_REPRESENTATION_CONTEXT ( 3 ) GLOBAL_UNCERTAINTY_ASSIGNED_CONTEXT ( ( #166 ) ) GLOBAL_UNIT_ASSIGNED_CONTEXT ( ( #102, #307, #195 ) ) REPRESENTATION_CONTEXT ( 'NONE', 'WORKASPACE' ) );
#76 = LINE ( 'NONE', #237, #250 ) ;
#77 = CARTESIAN_POINT ( 'NONE',  ( -3.299999999999999822, 4.041334437186265510E-16, 5.200000000000009948 ) ) ;
#78 = CARTESIAN_POINT ( 'NONE',  ( -3.100000000000000089, 0.000000000000000000, 5.200000000000009948 ) ) ;
#79 = AXIS2_PLACEMENT_3D ( 'NONE', #143, #252, #230 ) ;
#80 = CALENDAR_DATE ( 2022, 7, 7 ) ;
#81 = DIRECTION ( 'NONE',  ( -0.000000000000000000, -0.000000000000000000, -1.000000000000000000 ) ) ;
#82 = APPROVAL_ROLE ( '' ) ;
#83 = ORIENTED_EDGE ( 'NONE', *, *, #20, .F. ) ;
#84 = LOCAL_TIME ( 12, 11, 13.00000000000000000, #265 ) ;
#85 = DATE_AND_TIME ( #88, #213 ) ;
#86 = EDGE_CURVE ( 'NONE', #30, #178, #115, .T. ) ;
#87 = ORIENTED_EDGE ( 'NONE', *, *, #108, .T. ) ;
#88 = CALENDAR_DATE ( 2022, 7, 7 ) ;
#89 = AXIS2_PLACEMENT_3D ( 'NONE', #277, #140, #116 ) ;
#90 = ADVANCED_BREP_SHAPE_REPRESENTATION ( 'ab7b', ( #100, #120 ), #75 ) ;
#91 = LINE ( 'NONE', #184, #197 ) ;
#92 = VERTEX_POINT ( 'NONE', #21 ) ;
#93 = EDGE_LOOP ( 'NONE', ( #111, #8, #13, #35 ) ) ;
#94 = DIRECTION ( 'NONE',  ( -0.000000000000000000, -0.000000000000000000, -1.000000000000000000 ) ) ;
#95 = FACE_OUTER_BOUND ( 'NONE', #9, .T. ) ;
#96 = CARTESIAN_POINT ( 'NONE',  ( 0.000000000000000000, 0.000000000000000000, 5.200000000000009948 ) ) ;
#97 = AXIS2_PLACEMENT_3D ( 'NONE', #233, #254, #47 ) ;
#98 = PLANE ( 'NONE',  #228 ) ;
#99 = LINE ( 'NONE', #165, #255 ) ;
#100 = MANIFOLD_SOLID_BREP ( 'Zaoblit1', #182 ) ;
#101 = CC_DESIGN_APPROVAL ( #288, ( #183 ) ) ;
#102 =( LENGTH_UNIT ( ) NAMED_UNIT ( * ) SI_UNIT ( .MILLI., .METRE. ) );
#103 = CIRCLE ( 'NONE', #244, 3.100000000000000089 ) ;
#104 = FACE_OUTER_BOUND ( 'NONE', #93, .T. ) ;
#105 = CARTESIAN_POINT ( 'NONE',  ( 0.000000000000000000, 0.000000000000000000, 5.000000000000000000 ) ) ;
#106 = PERSON_AND_ORGANIZATION_ROLE ( 'creator' ) ;
#107 = DIRECTION ( 'NONE',  ( -1.000000000000000000, 0.000000000000000000, 0.000000000000000000 ) ) ;
#108 = EDGE_CURVE ( 'NONE', #275, #294, #5, .T. ) ;
#109 = AXIS2_PLACEMENT_3D ( 'NONE', #105, #216, #51 ) ;
#110 = CARTESIAN_POINT ( 'NONE',  ( 0.000000000000000000, 0.000000000000000000, 5.200000000000009948 ) ) ;
#111 = ORIENTED_EDGE ( 'NONE', *, *, #3, .F. ) ;
#112 = CARTESIAN_POINT ( 'NONE',  ( 6.000000000000000888, 7.347880794884120722E-16, 5.000000000000000000 ) ) ;
#113 = ORIENTED_EDGE ( 'NONE', *, *, #43, .T. ) ;
#114 = CARTESIAN_POINT ( 'NONE',  ( 0.000000000000000000, 0.000000000000000000, 5.000000000000000000 ) ) ;
#115 = CIRCLE ( 'NONE', #23, 6.000000000000000888 ) ;
#116 = DIRECTION ( 'NONE',  ( 1.000000000000000000, 0.000000000000000000, 0.000000000000000000 ) ) ;
#117 = EDGE_CURVE ( 'NONE', #226, #245, #99, .T. ) ;
#118 = CYLINDRICAL_SURFACE ( 'NONE', #168, 6.000000000000000888 ) ;
#119 = DIRECTION ( 'NONE',  ( 1.000000000000000000, 0.000000000000000000, -0.000000000000000000 ) ) ;
#120 = AXIS2_PLACEMENT_3D ( 'NONE', #52, #29, #147 ) ;
#121 = CARTESIAN_POINT ( 'NONE',  ( 0.000000000000000000, 0.000000000000000000, 5.200000000000009948 ) ) ;
#122 = EDGE_CURVE ( 'NONE', #226, #295, #190, .T. ) ;
#123 = CARTESIAN_POINT ( 'NONE',  ( -3.100000000000000089, 0.000000000000000000, 255.0000000000000000 ) ) ;
#124 = CIRCLE ( 'NONE', #97, 3.299999999999999822 ) ;
#125 = PERSON_AND_ORGANIZATION ( #141, #139 ) ;
#126 = ORIENTED_EDGE ( 'NONE', *, *, #207, .F. ) ;
#127 = PERSON_AND_ORGANIZATION ( #141, #139 ) ;
#128 = APPROVAL_PERSON_ORGANIZATION ( #221, #303, #82 ) ;
#129 = SECURITY_CLASSIFICATION_LEVEL ( 'unclassified' ) ;
#130 = ORIENTED_EDGE ( 'NONE', *, *, #117, .T. ) ;
#131 = PERSON_AND_ORGANIZATION_ROLE ( 'design_supplier' ) ;
#132 = EDGE_LOOP ( 'NONE', ( #37, #160 ) ) ;
#133 = PRODUCT_RELATED_PRODUCT_CATEGORY ( 'detail', '', ( #27 ) ) ;
#134 = CARTESIAN_POINT ( 'NONE',  ( 0.000000000000000000, 0.000000000000000000, 255.0000000000000000 ) ) ;
#135 = CARTESIAN_POINT ( 'NONE',  ( 0.000000000000000000, 0.000000000000000000, 255.0000000000000000 ) ) ;
#136 = ORIENTED_EDGE ( 'NONE', *, *, #225, .F. ) ;
#137 = DIRECTION ( 'NONE',  ( 1.000000000000000000, 0.000000000000000000, 0.000000000000000000 ) ) ;
#138 = FACE_OUTER_BOUND ( 'NONE', #209, .T. ) ;
#139 = ORGANIZATION ( 'NEURÈENÝ', 'NEURÈENÝ', '' ) ;
#140 = DIRECTION ( 'NONE',  ( 0.000000000000000000, 0.000000000000000000, 1.000000000000000000 ) ) ;
#141 = PERSON ( 'NEURÈENÝ', 'NEURÈENÝ', 'NEURÈENÝ', ('NEURÈENÝ'), ('NEURÈENÝ'), ('NEURÈENÝ') ) ;
#142 = DESIGN_CONTEXT ( 'detailed design', #49, 'design' ) ;
#143 = CARTESIAN_POINT ( 'NONE',  ( 0.000000000000000000, 0.000000000000000000, 0.000000000000000000 ) ) ;
#144 = EDGE_CURVE ( 'NONE', #92, #220, #124, .T. ) ;
#145 = DIRECTION ( 'NONE',  ( 1.000000000000000000, 0.000000000000000000, 0.000000000000000000 ) ) ;
#146 = AXIS2_PLACEMENT_3D ( 'NONE', #110, #205, #161 ) ;
#147 = DIRECTION ( 'NONE',  ( 1.000000000000000000, 0.000000000000000000, 0.000000000000000000 ) ) ;
#148 = CC_DESIGN_PERSON_AND_ORGANIZATION_ASSIGNMENT ( #60, #131, ( #306 ) ) ;
#149 = APPLICATION_PROTOCOL_DEFINITION ( 'international standard', 'config_control_design', 1994, #49 ) ;
#150 = MECHANICAL_CONTEXT ( 'NONE', #176, 'mechanical' ) ;
#151 = LOCAL_TIME ( 12, 11, 13.00000000000000000, #286 ) ;
#152 = APPROVAL_ROLE ( '' ) ;
#153 = ADVANCED_FACE ( 'NONE', ( #46 ), #211, .T. ) ;
#154 = ORIENTED_EDGE ( 'NONE', *, *, #122, .T. ) ;
#155 = APPROVAL_DATE_TIME ( #181, #303 ) ;
#156 = AXIS2_PLACEMENT_3D ( 'NONE', #284, #261, #171 ) ;
#157 = ORIENTED_EDGE ( 'NONE', *, *, #144, .T. ) ;
#158 = DATE_AND_TIME ( #63, #241 ) ;
#159 = EDGE_LOOP ( 'NONE', ( #251, #231, #113, #206 ) ) ;
#160 = ORIENTED_EDGE ( 'NONE', *, *, #225, .T. ) ;
#161 = DIRECTION ( 'NONE',  ( 1.000000000000000000, 0.000000000000000000, 0.000000000000000000 ) ) ;
#162 = AXIS2_PLACEMENT_3D ( 'NONE', #55, #218, #238 ) ;
#163 = ORIENTED_EDGE ( 'NONE', *, *, #108, .F. ) ;
#164 = CARTESIAN_POINT ( 'NONE',  ( 0.000000000000000000, 0.000000000000000000, 5.000000000000000000 ) ) ;
#165 = CARTESIAN_POINT ( 'NONE',  ( -3.100000000000000089, 0.000000000000000000, 255.0000000000000000 ) ) ;
#166 = UNCERTAINTY_MEASURE_WITH_UNIT (LENGTH_MEASURE( 1.000000000000000082E-05 ), #102, 'distance_accuracy_value', 'NONE');
#167 = DIRECTION ( 'NONE',  ( 0.000000000000000000, 0.000000000000000000, 1.000000000000000000 ) ) ;
#168 = AXIS2_PLACEMENT_3D ( 'NONE', #164, #15, #74 ) ;
#169 = PLANE ( 'NONE',  #301 ) ;
#170 = ADVANCED_FACE ( 'NONE', ( #235 ), #118, .T. ) ;
#171 = DIRECTION ( 'NONE',  ( 0.000000000000000000, 0.000000000000000000, -1.000000000000000000 ) ) ;
#172 = AXIS2_PLACEMENT_3D ( 'NONE', #96, #299, #137 ) ;
#173 = ADVANCED_FACE ( 'NONE', ( #256 ), #50, .F. ) ;
#174 = DATE_AND_TIME ( #80, #151 ) ;
#175 = PRODUCT_DEFINITION_SHAPE ( 'NONE', 'NONE',  #263 ) ;
#176 = APPLICATION_CONTEXT ( 'configuration controlled 3d designs of mechanical parts and assemblies' ) ;
#177 = EDGE_CURVE ( 'NONE', #220, #92, #18, .T. ) ;
#178 = VERTEX_POINT ( 'NONE', #112 ) ;
#179 = TOROIDAL_SURFACE ( 'NONE', #162, 3.299999999999999822, 0.2000000000000000111 ) ;
#180 = ORIENTED_EDGE ( 'NONE', *, *, #20, .T. ) ;
#181 = DATE_AND_TIME ( #224, #84 ) ;
#182 = CLOSED_SHELL ( 'NONE', ( #196, #153, #170, #188, #66, #173, #14, #58, #54 ) ) ;
#183 = SECURITY_CLASSIFICATION ( '', '', #129 ) ;
#184 = CARTESIAN_POINT ( 'NONE',  ( -6.000000000000000888, 0.000000000000000000, 5.000000000000000000 ) ) ;
#185 = ORIENTED_EDGE ( 'NONE', *, *, #282, .T. ) ;
#186 = DIRECTION ( 'NONE',  ( 1.000000000000000000, 0.000000000000000000, 0.000000000000000000 ) ) ;
#187 = DIRECTION ( 'NONE',  ( 1.000000000000000000, 0.000000000000000000, 0.000000000000000000 ) ) ;
#188 = ADVANCED_FACE ( 'NONE', ( #45 ), #232, .T. ) ;
#189 = VECTOR ( 'NONE', #229, 1000.000000000000000 ) ;
#190 = CIRCLE ( 'NONE', #48, 3.100000000000000089 ) ;
#191 = EDGE_LOOP ( 'NONE', ( #62, #163 ) ) ;
#192 = CARTESIAN_POINT ( 'NONE',  ( 3.100000000000000089, 3.796405077356794918E-16, 5.200000000000009948 ) ) ;
#193 = CARTESIAN_POINT ( 'NONE',  ( 0.000000000000000000, 0.000000000000000000, 5.000000000000000000 ) ) ;
#194 = FACE_OUTER_BOUND ( 'NONE', #132, .T. ) ;
#195 =( NAMED_UNIT ( * ) SI_UNIT ( $, .STERADIAN. ) SOLID_ANGLE_UNIT ( ) );
#196 = ADVANCED_FACE ( 'NONE', ( #104 ), #179, .F. ) ;
#197 = VECTOR ( 'NONE', #271, 1000.000000000000000 ) ;
#198 = AXIS2_PLACEMENT_3D ( 'NONE', #77, #258, #56 ) ;
#199 = COORDINATED_UNIVERSAL_TIME_OFFSET ( 1, 0, .AHEAD. ) ;
#200 = ORIENTED_EDGE ( 'NONE', *, *, #177, .T. ) ;
#201 = CC_DESIGN_SECURITY_CLASSIFICATION ( #183, ( #306 ) ) ;
#202 = APPROVAL_STATUS ( 'not_yet_approved' ) ;
#203 = ORIENTED_EDGE ( 'NONE', *, *, #278, .T. ) ;
#204 = AXIS2_PLACEMENT_3D ( 'NONE', #12, #94, #187 ) ;
#205 = DIRECTION ( 'NONE',  ( 0.000000000000000000, 0.000000000000000000, 1.000000000000000000 ) ) ;
#206 = ORIENTED_EDGE ( 'NONE', *, *, #25, .T. ) ;
#207 = EDGE_CURVE ( 'NONE', #295, #226, #103, .T. ) ;
#208 = DIRECTION ( 'NONE',  ( 1.000000000000000000, 0.000000000000000000, 0.000000000000000000 ) ) ;
#209 = EDGE_LOOP ( 'NONE', ( #154, #248 ) ) ;
#210 = DIRECTION ( 'NONE',  ( -0.000000000000000000, -0.000000000000000000, -1.000000000000000000 ) ) ;
#211 = CYLINDRICAL_SURFACE ( 'NONE', #259, 3.100000000000000089 ) ;
#212 = DIRECTION ( 'NONE',  ( -0.000000000000000000, -0.000000000000000000, -1.000000000000000000 ) ) ;
#213 = LOCAL_TIME ( 12, 11, 13.00000000000000000, #199 ) ;
#214 = APPROVAL_STATUS ( 'not_yet_approved' ) ;
#215 = APPROVAL_ROLE ( '' ) ;
#216 = DIRECTION ( 'NONE',  ( 0.000000000000000000, 0.000000000000000000, 1.000000000000000000 ) ) ;
#217 = EDGE_CURVE ( 'NONE', #67, #245, #281, .T. ) ;
#218 = DIRECTION ( 'NONE',  ( 0.000000000000000000, 0.000000000000000000, 1.000000000000000000 ) ) ;
#219 = COORDINATED_UNIVERSAL_TIME_OFFSET ( 1, 0, .AHEAD. ) ;
#220 = VERTEX_POINT ( 'NONE', #57 ) ;
#221 = PERSON_AND_ORGANIZATION ( #141, #139 ) ;
#222 = CIRCLE ( 'NONE', #146, 3.100000000000000089 ) ;
#223 = AXIS2_PLACEMENT_3D ( 'NONE', #121, #257, #145 ) ;
#224 = CALENDAR_DATE ( 2022, 7, 7 ) ;
#225 = EDGE_CURVE ( 'NONE', #178, #30, #285, .T. ) ;
#226 = VERTEX_POINT ( 'NONE', #123 ) ;
#227 = ORIENTED_EDGE ( 'NONE', *, *, #3, .T. ) ;
#228 = AXIS2_PLACEMENT_3D ( 'NONE', #16, #73, #296 ) ;
#229 = DIRECTION ( 'NONE',  ( -0.000000000000000000, -0.000000000000000000, -1.000000000000000000 ) ) ;
#230 = DIRECTION ( 'NONE',  ( 1.000000000000000000, 0.000000000000000000, -0.000000000000000000 ) ) ;
#231 = ORIENTED_EDGE ( 'NONE', *, *, #86, .F. ) ;
#232 = CYLINDRICAL_SURFACE ( 'NONE', #234, 6.000000000000000888 ) ;
#233 = CARTESIAN_POINT ( 'NONE',  ( 0.000000000000000000, 0.000000000000000000, 5.000000000000000000 ) ) ;
#234 = AXIS2_PLACEMENT_3D ( 'NONE', #114, #210, #298 ) ;
#235 = FACE_OUTER_BOUND ( 'NONE', #297, .T. ) ;
#236 = DIRECTION ( 'NONE',  ( -1.000000000000000000, 0.000000000000000000, 0.000000000000000000 ) ) ;
#237 = CARTESIAN_POINT ( 'NONE',  ( 6.000000000000000888, 7.347880794884120722E-16, 5.000000000000000000 ) ) ;
#238 = DIRECTION ( 'NONE',  ( 1.000000000000000000, 0.000000000000000000, 0.000000000000000000 ) ) ;
#239 = PERSON_AND_ORGANIZATION_ROLE ( 'design_owner' ) ;
#240 = CC_DESIGN_PERSON_AND_ORGANIZATION_ASSIGNMENT ( #26, #36, ( #263 ) ) ;
#241 = LOCAL_TIME ( 12, 11, 13.00000000000000000, #219 ) ;
#242 = SHAPE_DEFINITION_REPRESENTATION ( #175, #90 ) ;
#243 = ORIENTED_EDGE ( 'NONE', *, *, #144, .F. ) ;
#244 = AXIS2_PLACEMENT_3D ( 'NONE', #287, #283, #304 ) ;
#245 = VERTEX_POINT ( 'NONE', #78 ) ;
#246 = ORIENTED_EDGE ( 'NONE', *, *, #43, .F. ) ;
#247 = DATE_TIME_ROLE ( 'classification_date' ) ;
#248 = ORIENTED_EDGE ( 'NONE', *, *, #207, .T. ) ;
#249 = DIRECTION ( 'NONE',  ( -0.000000000000000000, -0.000000000000000000, -1.000000000000000000 ) ) ;
#250 = VECTOR ( 'NONE', #81, 1000.000000000000000 ) ;
#251 = ORIENTED_EDGE ( 'NONE', *, *, #278, .F. ) ;
#252 = DIRECTION ( 'NONE',  ( 0.000000000000000000, 0.000000000000000000, 1.000000000000000000 ) ) ;
#253 = DIRECTION ( 'NONE',  ( 0.000000000000000000, 0.000000000000000000, 1.000000000000000000 ) ) ;
#254 = DIRECTION ( 'NONE',  ( -0.000000000000000000, -0.000000000000000000, -1.000000000000000000 ) ) ;
#255 = VECTOR ( 'NONE', #212, 1000.000000000000000 ) ;
#256 = FACE_OUTER_BOUND ( 'NONE', #191, .T. ) ;
#257 = DIRECTION ( 'NONE',  ( 0.000000000000000000, 0.000000000000000000, 1.000000000000000000 ) ) ;
#258 = DIRECTION ( 'NONE',  ( 1.224646799147353207E-16, 1.000000000000000000, -0.000000000000000000 ) ) ;
#259 = AXIS2_PLACEMENT_3D ( 'NONE', #135, #280, #236 ) ;
#260 = CC_DESIGN_APPROVAL ( #303, ( #306 ) ) ;
#261 = DIRECTION ( 'NONE',  ( 0.000000000000000000, -1.000000000000000000, 0.000000000000000000 ) ) ;
#262 = CC_DESIGN_DATE_AND_TIME_ASSIGNMENT ( #158, #247, ( #183 ) ) ;
#263 = PRODUCT_DEFINITION ( 'NEZNÁMÝ', '', #306, #142 ) ;
#264 = APPROVAL_DATE_TIME ( #174, #292 ) ;
#265 = COORDINATED_UNIVERSAL_TIME_OFFSET ( 1, 0, .AHEAD. ) ;
#266 = PERSON_AND_ORGANIZATION ( #141, #139 ) ;
#267 = ORIENTED_EDGE ( 'NONE', *, *, #117, .F. ) ;
#268 = PERSON_AND_ORGANIZATION_ROLE ( 'classification_officer' ) ;
#269 = CIRCLE ( 'NONE', #156, 0.1999999999999996503 ) ;
#270 = ORIENTED_EDGE ( 'NONE', *, *, #217, .T. ) ;
#271 = DIRECTION ( 'NONE',  ( -0.000000000000000000, -0.000000000000000000, -1.000000000000000000 ) ) ;
#272 = EDGE_CURVE ( 'NONE', #245, #92, #28, .T. ) ;
#273 = CYLINDRICAL_SURFACE ( 'NONE', #53, 3.100000000000000089 ) ;
#274 = CC_DESIGN_PERSON_AND_ORGANIZATION_ASSIGNMENT ( #266, #106, ( #306 ) ) ;
#275 = VERTEX_POINT ( 'NONE', #305 ) ;
#276 = ORIENTED_EDGE ( 'NONE', *, *, #272, .F. ) ;
#277 = CARTESIAN_POINT ( 'NONE',  ( 0.000000000000000000, 0.000000000000000000, 0.000000000000000000 ) ) ;
#278 = EDGE_CURVE ( 'NONE', #178, #275, #76, .T. ) ;
#279 = DIRECTION ( 'NONE',  ( 0.000000000000000000, 0.000000000000000000, 1.000000000000000000 ) ) ;
#280 = DIRECTION ( 'NONE',  ( -0.000000000000000000, -0.000000000000000000, -1.000000000000000000 ) ) ;
#281 = CIRCLE ( 'NONE', #223, 3.100000000000000089 ) ;
#282 = EDGE_CURVE ( 'NONE', #67, #220, #269, .T. ) ;
#283 = DIRECTION ( 'NONE',  ( 0.000000000000000000, 0.000000000000000000, 1.000000000000000000 ) ) ;
#284 = CARTESIAN_POINT ( 'NONE',  ( 3.299999999999999822, 0.000000000000000000, 5.200000000000009948 ) ) ;
#285 = CIRCLE ( 'NONE', #109, 6.000000000000000888 ) ;
#286 = COORDINATED_UNIVERSAL_TIME_OFFSET ( 1, 0, .AHEAD. ) ;
#287 = CARTESIAN_POINT ( 'NONE',  ( 0.000000000000000000, 0.000000000000000000, 255.0000000000000000 ) ) ;
#288 = APPROVAL ( #202, 'NEURÈENÝ' ) ;
#289 = APPROVAL_PERSON_ORGANIZATION ( #127, #288, #152 ) ;
#290 = COORDINATED_UNIVERSAL_TIME_OFFSET ( 1, 0, .AHEAD. ) ;
#291 = DATE_TIME_ROLE ( 'creation_date' ) ;
#292 = APPROVAL ( #214, 'NEURÈENÝ' ) ;
#293 = CARTESIAN_POINT ( 'NONE',  ( -6.000000000000000888, 0.000000000000000000, 5.000000000000000000 ) ) ;
#294 = VERTEX_POINT ( 'NONE', #22 ) ;
#295 = VERTEX_POINT ( 'NONE', #1 ) ;
#296 = DIRECTION ( 'NONE',  ( 1.000000000000000000, 0.000000000000000000, -0.000000000000000000 ) ) ;
#297 = EDGE_LOOP ( 'NONE', ( #136, #203, #87, #246 ) ) ;
#298 = DIRECTION ( 'NONE',  ( -1.000000000000000000, 0.000000000000000000, 0.000000000000000000 ) ) ;
#299 = DIRECTION ( 'NONE',  ( 0.000000000000000000, 0.000000000000000000, 1.000000000000000000 ) ) ;
#300 = DIRECTION ( 'NONE',  ( 1.000000000000000000, 0.000000000000000000, 0.000000000000000000 ) ) ;
#301 = AXIS2_PLACEMENT_3D ( 'NONE', #193, #279, #119 ) ;
#302 = PERSON_AND_ORGANIZATION ( #141, #139 ) ;
#303 = APPROVAL ( #6, 'NEURÈENÝ' ) ;
#304 = DIRECTION ( 'NONE',  ( 1.000000000000000000, 0.000000000000000000, 0.000000000000000000 ) ) ;
#305 = CARTESIAN_POINT ( 'NONE',  ( 6.000000000000000888, 7.347880794884120722E-16, 0.000000000000000000 ) ) ;
#306 = PRODUCT_DEFINITION_FORMATION_WITH_SPECIFIED_SOURCE ( 'LIBOVOLNÝ', '', #27, .NOT_KNOWN. ) ;
#307 =( NAMED_UNIT ( * ) PLANE_ANGLE_UNIT ( ) SI_UNIT ( $, .RADIAN. ) );
ENDSEC;
END-ISO-10303-21;
