ISO-10303-21;
HEADER;
FILE_DESCRIPTION (( 'STEP AP203' ),
    '1' );
FILE_NAME ('488d.STEP',
    '2022-07-07T09:32:56',
    ( '' ),
    ( '' ),
    'SwSTEP 2.0',
    'SolidWorks 2019',
    '' );
FILE_SCHEMA (( 'CONFIG_CONTROL_DESIGN' ));
ENDSEC;

DATA;
#1 = DATE_AND_TIME ( #152, #198 ) ;
#2 = AXIS2_PLACEMENT_3D ( 'NONE', #118, #210, #282 ) ;
#3 = COORDINATED_UNIVERSAL_TIME_OFFSET ( 1, 0, .AHEAD. ) ;
#4 = PERSON_AND_ORGANIZATION ( #90, #264 ) ;
#5 = CC_DESIGN_SECURITY_CLASSIFICATION ( #23, ( #188 ) ) ;
#6 = ORIENTED_EDGE ( 'NONE', *, *, #171, .T. ) ;
#7 = VERTEX_POINT ( 'NONE', #254 ) ;
#8 = PLANE ( 'NONE',  #183 ) ;
#9 = ORIENTED_EDGE ( 'NONE', *, *, #236, .T. ) ;
#10 = FACE_OUTER_BOUND ( 'NONE', #174, .T. ) ;
#11 = VERTEX_POINT ( 'NONE', #199 ) ;
#12 = DIRECTION ( 'NONE',  ( 1.000000000000000000, 0.000000000000000000, 0.000000000000000000 ) ) ;
#13 = APPLICATION_CONTEXT ( 'configuration controlled 3d designs of mechanical parts and assemblies' ) ;
#14 = ORIENTED_EDGE ( 'NONE', *, *, #236, .F. ) ;
#15 = ORIENTED_EDGE ( 'NONE', *, *, #120, .T. ) ;
#16 = DIRECTION ( 'NONE',  ( 0.000000000000000000, 0.000000000000000000, 1.000000000000000000 ) ) ;
#17 = CARTESIAN_POINT ( 'NONE',  ( 0.000000000000000000, 0.000000000000000000, 8.199999999999985079 ) ) ;
#18 = LOCAL_TIME ( 11, 32, 56.00000000000000000, #75 ) ;
#19 = DIRECTION ( 'NONE',  ( 0.000000000000000000, 0.000000000000000000, 1.000000000000000000 ) ) ;
#20 = EDGE_CURVE ( 'NONE', #11, #7, #225, .T. ) ;
#21 = DIRECTION ( 'NONE',  ( 1.000000000000000000, 0.000000000000000000, 0.000000000000000000 ) ) ;
#22 = DIRECTION ( 'NONE',  ( -0.000000000000000000, -0.000000000000000000, -1.000000000000000000 ) ) ;
#23 = SECURITY_CLASSIFICATION ( '', '', #197 ) ;
#24 = DATE_AND_TIME ( #148, #156 ) ;
#25 = APPROVAL_DATE_TIME ( #241, #97 ) ;
#26 = VECTOR ( 'NONE', #131, 1000.000000000000000 ) ;
#27 = DIRECTION ( 'NONE',  ( 1.000000000000000000, 0.000000000000000000, 0.000000000000000000 ) ) ;
#28 = EDGE_CURVE ( 'NONE', #11, #130, #112, .T. ) ;
#29 = EDGE_CURVE ( 'NONE', #219, #201, #281, .T. ) ;
#30 = ORIENTED_EDGE ( 'NONE', *, *, #273, .F. ) ;
#31 = ORIENTED_EDGE ( 'NONE', *, *, #228, .F. ) ;
#32 = AXIS2_PLACEMENT_3D ( 'NONE', #233, #117, #63 ) ;
#33 = FACE_BOUND ( 'NONE', #36, .T. ) ;
#34 = ORIENTED_EDGE ( 'NONE', *, *, #28, .T. ) ;
#35 = ADVANCED_FACE ( 'NONE', ( #175 ), #300, .F. ) ;
#36 = EDGE_LOOP ( 'NONE', ( #291, #229 ) ) ;
#37 = ORIENTED_EDGE ( 'NONE', *, *, #154, .F. ) ;
#38 = DIRECTION ( 'NONE',  ( -0.000000000000000000, -0.000000000000000000, -1.000000000000000000 ) ) ;
#39 = ORIENTED_EDGE ( 'NONE', *, *, #243, .T. ) ;
#40 = CARTESIAN_POINT ( 'NONE',  ( 0.000000000000000000, 0.000000000000000000, 1208.000000000000000 ) ) ;
#41 = AXIS2_PLACEMENT_3D ( 'NONE', #119, #184, #278 ) ;
#42 = CC_DESIGN_DATE_AND_TIME_ASSIGNMENT ( #24, #74, ( #187 ) ) ;
#43 = DIRECTION ( 'NONE',  ( 1.000000000000000000, 0.000000000000000000, 0.000000000000000000 ) ) ;
#44 = DIRECTION ( 'NONE',  ( -0.000000000000000000, -0.000000000000000000, -1.000000000000000000 ) ) ;
#45 = ADVANCED_FACE ( 'NONE', ( #297 ), #87, .T. ) ;
#46 = AXIS2_PLACEMENT_3D ( 'NONE', #307, #214, #27 ) ;
#47 = CYLINDRICAL_SURFACE ( 'NONE', #2, 13.00000000000000178 ) ;
#48 = APPROVAL ( #191, 'NEURÈENÝ' ) ;
#49 = PERSON_AND_ORGANIZATION_ROLE ( 'creator' ) ;
#50 = PERSON_AND_ORGANIZATION ( #90, #264 ) ;
#51 = AXIS2_PLACEMENT_3D ( 'NONE', #17, #16, #211 ) ;
#52 = PRODUCT_DEFINITION_SHAPE ( 'NONE', 'NONE',  #187 ) ;
#53 = ORIENTED_EDGE ( 'NONE', *, *, #192, .F. ) ;
#54 = CYLINDRICAL_SURFACE ( 'NONE', #89, 10.00000000000000000 ) ;
#55 = ORIENTED_EDGE ( 'NONE', *, *, #243, .F. ) ;
#56 = LOCAL_TIME ( 11, 32, 56.00000000000000000, #287 ) ;
#57 = DIRECTION ( 'NONE',  ( -1.000000000000000000, 1.224646799147353207E-16, 0.000000000000000000 ) ) ;
#58 = ORIENTED_EDGE ( 'NONE', *, *, #255, .F. ) ;
#59 = CARTESIAN_POINT ( 'NONE',  ( -10.00000000000000000, 0.000000000000000000, 1208.000000000000000 ) ) ;
#60 = ADVANCED_FACE ( 'NONE', ( #10 ), #54, .T. ) ;
#61 = DIRECTION ( 'NONE',  ( -1.000000000000000000, 0.000000000000000000, 0.000000000000000000 ) ) ;
#62 = ADVANCED_FACE ( 'NONE', ( #181 ), #202, .T. ) ;
#63 = DIRECTION ( 'NONE',  ( 1.000000000000000000, 0.000000000000000000, 0.000000000000000000 ) ) ;
#64 = DESIGN_CONTEXT ( 'detailed design', #129, 'design' ) ;
#65 = DIRECTION ( 'NONE',  ( 1.000000000000000000, 0.000000000000000000, -0.000000000000000000 ) ) ;
#66 = CARTESIAN_POINT ( 'NONE',  ( -13.00000000000000178, 0.000000000000000000, 8.000000000000000000 ) ) ;
#67 = CARTESIAN_POINT ( 'NONE',  ( 13.00000000000000178, 1.592040838891559293E-15, 0.000000000000000000 ) ) ;
#68 = CIRCLE ( 'NONE', #41, 10.00000000000000000 ) ;
#69 = AXIS2_PLACEMENT_3D ( 'NONE', #275, #182, #61 ) ;
#70 = FACE_OUTER_BOUND ( 'NONE', #81, .T. ) ;
#71 = MECHANICAL_CONTEXT ( 'NONE', #13, 'mechanical' ) ;
#72 = PERSON_AND_ORGANIZATION_ROLE ( 'design_supplier' ) ;
#73 = ADVANCED_FACE ( 'NONE', ( #33, #224 ), #8, .T. ) ;
#74 = DATE_TIME_ROLE ( 'creation_date' ) ;
#75 = COORDINATED_UNIVERSAL_TIME_OFFSET ( 1, 0, .AHEAD. ) ;
#76 = EDGE_LOOP ( 'NONE', ( #30, #55 ) ) ;
#77 = CIRCLE ( 'NONE', #139, 0.2000000000000005107 ) ;
#78 = PRODUCT ( '488d', '488d', '', ( #71 ) ) ;
#79 = EDGE_LOOP ( 'NONE', ( #203, #34 ) ) ;
#80 = DIRECTION ( 'NONE',  ( 1.224646799147353207E-16, 1.000000000000000000, -0.000000000000000000 ) ) ;
#81 = EDGE_LOOP ( 'NONE', ( #58, #14, #247, #108 ) ) ;
#82 = AXIS2_PLACEMENT_3D ( 'NONE', #115, #226, #12 ) ;
#83 = DIRECTION ( 'NONE',  ( 0.000000000000000000, 0.000000000000000000, 1.000000000000000000 ) ) ;
#84 = ORIENTED_EDGE ( 'NONE', *, *, #20, .F. ) ;
#85 = EDGE_CURVE ( 'NONE', #7, #219, #252, .T. ) ;
#86 = ORIENTED_EDGE ( 'NONE', *, *, #120, .F. ) ;
#87 = PLANE ( 'NONE',  #212 ) ;
#88 = FACE_OUTER_BOUND ( 'NONE', #76, .T. ) ;
#89 = AXIS2_PLACEMENT_3D ( 'NONE', #40, #38, #251 ) ;
#90 = PERSON ( 'NEURÈENÝ', 'NEURÈENÝ', 'NEURÈENÝ', ('NEURÈENÝ'), ('NEURÈENÝ'), ('NEURÈENÝ') ) ;
#91 = DIRECTION ( 'NONE',  ( -0.000000000000000000, -0.000000000000000000, -1.000000000000000000 ) ) ;
#92 = CARTESIAN_POINT ( 'NONE',  ( 0.000000000000000000, 0.000000000000000000, 0.000000000000000000 ) ) ;
#93 = CARTESIAN_POINT ( 'NONE',  ( 10.20000000000000107, 0.000000000000000000, 7.999999999999992895 ) ) ;
#94 = VECTOR ( 'NONE', #91, 1000.000000000000000 ) ;
#95 =( LENGTH_UNIT ( ) NAMED_UNIT ( * ) SI_UNIT ( .MILLI., .METRE. ) );
#96 = PERSON_AND_ORGANIZATION_ROLE ( 'design_owner' ) ;
#97 = APPROVAL ( #124, 'NEURÈENÝ' ) ;
#98 = APPROVAL_STATUS ( 'not_yet_approved' ) ;
#99 = AXIS2_PLACEMENT_3D ( 'NONE', #163, #145, #147 ) ;
#100 = APPLICATION_PROTOCOL_DEFINITION ( 'international standard', 'config_control_design', 1994, #13 ) ;
#101 = EDGE_CURVE ( 'NONE', #135, #201, #77, .T. ) ;
#102 = APPROVAL_ROLE ( '' ) ;
#103 = ORIENTED_EDGE ( 'NONE', *, *, #168, .F. ) ;
#104 = DATE_AND_TIME ( #193, #149 ) ;
#105 = ORIENTED_EDGE ( 'NONE', *, *, #28, .F. ) ;
#106 = APPROVAL_PERSON_ORGANIZATION ( #263, #48, #170 ) ;
#107 = CC_DESIGN_PERSON_AND_ORGANIZATION_ASSIGNMENT ( #215, #126, ( #23 ) ) ;
#108 = ORIENTED_EDGE ( 'NONE', *, *, #273, .T. ) ;
#109 = CARTESIAN_POINT ( 'NONE',  ( 0.000000000000000000, 0.000000000000000000, 1208.000000000000000 ) ) ;
#110 = ORIENTED_EDGE ( 'NONE', *, *, #228, .T. ) ;
#111 = ORIENTED_EDGE ( 'NONE', *, *, #101, .F. ) ;
#112 = CIRCLE ( 'NONE', #304, 10.00000000000000000 ) ;
#113 = CIRCLE ( 'NONE', #51, 10.00000000000000000 ) ;
#114 = ORIENTED_EDGE ( 'NONE', *, *, #196, .F. ) ;
#115 = CARTESIAN_POINT ( 'NONE',  ( 0.000000000000000000, 0.000000000000000000, 8.000000000000000000 ) ) ;
#116 = CARTESIAN_POINT ( 'NONE',  ( 0.000000000000000000, 0.000000000000000000, 8.199999999999985079 ) ) ;
#117 = DIRECTION ( 'NONE',  ( 0.000000000000000000, 0.000000000000000000, 1.000000000000000000 ) ) ;
#118 = CARTESIAN_POINT ( 'NONE',  ( 0.000000000000000000, 0.000000000000000000, 8.000000000000000000 ) ) ;
#119 = CARTESIAN_POINT ( 'NONE',  ( 0.000000000000000000, 0.000000000000000000, 1208.000000000000000 ) ) ;
#120 = EDGE_CURVE ( 'NONE', #130, #135, #294, .T. ) ;
#121 = DIRECTION ( 'NONE',  ( -1.000000000000000000, 0.000000000000000000, 0.000000000000000000 ) ) ;
#122 = APPROVAL_PERSON_ORGANIZATION ( #128, #97, #102 ) ;
#123 = CC_DESIGN_PERSON_AND_ORGANIZATION_ASSIGNMENT ( #242, #49, ( #187 ) ) ;
#124 = APPROVAL_STATUS ( 'not_yet_approved' ) ;
#125 = PERSON_AND_ORGANIZATION ( #90, #264 ) ;
#126 = PERSON_AND_ORGANIZATION_ROLE ( 'classification_officer' ) ;
#127 = CIRCLE ( 'NONE', #99, 13.00000000000000178 ) ;
#128 = PERSON_AND_ORGANIZATION ( #90, #264 ) ;
#129 = APPLICATION_CONTEXT ( 'configuration controlled 3d designs of mechanical parts and assemblies' ) ;
#130 = VERTEX_POINT ( 'NONE', #235 ) ;
#131 = DIRECTION ( 'NONE',  ( -0.000000000000000000, -0.000000000000000000, -1.000000000000000000 ) ) ;
#132 = ORIENTED_EDGE ( 'NONE', *, *, #85, .F. ) ;
#133 = CARTESIAN_POINT ( 'NONE',  ( 10.20000000000000107, 0.000000000000000000, 8.199999999999985079 ) ) ;
#134 = ADVANCED_FACE ( 'NONE', ( #206 ), #172, .F. ) ;
#135 = VERTEX_POINT ( 'NONE', #143 ) ;
#136 = DIRECTION ( 'NONE',  ( -0.000000000000000000, -0.000000000000000000, -1.000000000000000000 ) ) ;
#137 = APPROVAL ( #98, 'NEURÈENÝ' ) ;
#138 = ORIENTED_EDGE ( 'NONE', *, *, #255, .T. ) ;
#139 = AXIS2_PLACEMENT_3D ( 'NONE', #271, #80, #57 ) ;
#140 = VERTEX_POINT ( 'NONE', #261 ) ;
#141 =( NAMED_UNIT ( * ) PLANE_ANGLE_UNIT ( ) SI_UNIT ( $, .RADIAN. ) );
#142 = CARTESIAN_POINT ( 'NONE',  ( 0.000000000000000000, 0.000000000000000000, 8.199999999999985079 ) ) ;
#143 = CARTESIAN_POINT ( 'NONE',  ( -10.00000000000000000, 0.000000000000000000, 8.199999999999985079 ) ) ;
#144 = CC_DESIGN_APPROVAL ( #97, ( #188 ) ) ;
#145 = DIRECTION ( 'NONE',  ( 0.000000000000000000, 0.000000000000000000, 1.000000000000000000 ) ) ;
#146 = ADVANCED_FACE ( 'NONE', ( #88 ), #258, .F. ) ;
#147 = DIRECTION ( 'NONE',  ( 1.000000000000000000, 0.000000000000000000, 0.000000000000000000 ) ) ;
#148 = CALENDAR_DATE ( 2022, 7, 7 ) ;
#149 = LOCAL_TIME ( 11, 32, 56.00000000000000000, #244 ) ;
#150 = APPROVAL_DATE_TIME ( #195, #48 ) ;
#151 = COORDINATED_UNIVERSAL_TIME_OFFSET ( 1, 0, .AHEAD. ) ;
#152 = CALENDAR_DATE ( 2022, 7, 7 ) ;
#153 = DIRECTION ( 'NONE',  ( 0.000000000000000000, -1.000000000000000000, 0.000000000000000000 ) ) ;
#154 = EDGE_CURVE ( 'NONE', #201, #219, #289, .T. ) ;
#155 = ORIENTED_EDGE ( 'NONE', *, *, #20, .T. ) ;
#156 = LOCAL_TIME ( 11, 32, 56.00000000000000000, #3 ) ;
#157 = CARTESIAN_POINT ( 'NONE',  ( 0.000000000000000000, 0.000000000000000000, 1208.000000000000000 ) ) ;
#158 = ORIENTED_EDGE ( 'NONE', *, *, #168, .T. ) ;
#159 = EDGE_LOOP ( 'NONE', ( #9, #158 ) ) ;
#160 = CARTESIAN_POINT ( 'NONE',  ( 10.00000000000000000, 1.224646799147353256E-15, 1208.000000000000000 ) ) ;
#161 = AXIS2_PLACEMENT_3D ( 'NONE', #186, #209, #21 ) ;
#162 = DIRECTION ( 'NONE',  ( 1.000000000000000000, 0.000000000000000000, 0.000000000000000000 ) ) ;
#163 = CARTESIAN_POINT ( 'NONE',  ( 0.000000000000000000, 0.000000000000000000, 0.000000000000000000 ) ) ;
#164 = FACE_OUTER_BOUND ( 'NONE', #293, .T. ) ;
#165 = CYLINDRICAL_SURFACE ( 'NONE', #260, 13.00000000000000178 ) ;
#166 = CALENDAR_DATE ( 2022, 7, 7 ) ;
#167 = AXIS2_PLACEMENT_3D ( 'NONE', #142, #301, #302 ) ;
#168 = EDGE_CURVE ( 'NONE', #290, #140, #305, .T. ) ;
#169 = APPLICATION_PROTOCOL_DEFINITION ( 'international standard', 'config_control_design', 1994, #129 ) ;
#170 = APPROVAL_ROLE ( '' ) ;
#171 = EDGE_CURVE ( 'NONE', #7, #135, #113, .T. ) ;
#172 = TOROIDAL_SURFACE ( 'NONE', #246, 10.20000000000000107, 0.2000000000000000111 ) ;
#173 = ADVANCED_BREP_SHAPE_REPRESENTATION ( '488d', ( #240, #46 ), #268 ) ;
#174 = EDGE_LOOP ( 'NONE', ( #84, #114, #15, #110 ) ) ;
#175 = FACE_OUTER_BOUND ( 'NONE', #253, .T. ) ;
#176 = VERTEX_POINT ( 'NONE', #67 ) ;
#177 = ORIENTED_EDGE ( 'NONE', *, *, #101, .T. ) ;
#178 = ORIENTED_EDGE ( 'NONE', *, *, #29, .F. ) ;
#179 = CC_DESIGN_APPROVAL ( #137, ( #23 ) ) ;
#180 = DIRECTION ( 'NONE',  ( 0.000000000000000000, 0.000000000000000000, 1.000000000000000000 ) ) ;
#181 = FACE_OUTER_BOUND ( 'NONE', #256, .T. ) ;
#182 = DIRECTION ( 'NONE',  ( -0.000000000000000000, -0.000000000000000000, -1.000000000000000000 ) ) ;
#183 = AXIS2_PLACEMENT_3D ( 'NONE', #292, #200, #276 ) ;
#184 = DIRECTION ( 'NONE',  ( 0.000000000000000000, 0.000000000000000000, 1.000000000000000000 ) ) ;
#185 = CARTESIAN_POINT ( 'NONE',  ( -13.00000000000000178, 0.000000000000000000, 0.000000000000000000 ) ) ;
#186 = CARTESIAN_POINT ( 'NONE',  ( 0.000000000000000000, 0.000000000000000000, 8.000000000000000000 ) ) ;
#187 = PRODUCT_DEFINITION ( 'NEZNÁMÝ', '', #188, #64 ) ;
#188 = PRODUCT_DEFINITION_FORMATION_WITH_SPECIFIED_SOURCE ( 'LIBOVOLNÝ', '', #78, .NOT_KNOWN. ) ;
#189 = LINE ( 'NONE', #259, #257 ) ;
#190 = CARTESIAN_POINT ( 'NONE',  ( 0.000000000000000000, 0.000000000000000000, 0.000000000000000000 ) ) ;
#191 = APPROVAL_STATUS ( 'not_yet_approved' ) ;
#192 = EDGE_CURVE ( 'NONE', #140, #230, #232, .T. ) ;
#193 = CALENDAR_DATE ( 2022, 7, 7 ) ;
#194 = AXIS2_PLACEMENT_3D ( 'NONE', #274, #204, #298 ) ;
#195 = DATE_AND_TIME ( #166, #56 ) ;
#196 = EDGE_CURVE ( 'NONE', #130, #11, #68, .T. ) ;
#197 = SECURITY_CLASSIFICATION_LEVEL ( 'unclassified' ) ;
#198 = LOCAL_TIME ( 11, 32, 56.00000000000000000, #151 ) ;
#199 = CARTESIAN_POINT ( 'NONE',  ( 10.00000000000000000, 1.224646799147353256E-15, 1208.000000000000000 ) ) ;
#200 = DIRECTION ( 'NONE',  ( 0.000000000000000000, 0.000000000000000000, 1.000000000000000000 ) ) ;
#201 = VERTEX_POINT ( 'NONE', #280 ) ;
#202 = CYLINDRICAL_SURFACE ( 'NONE', #69, 10.00000000000000000 ) ;
#203 = ORIENTED_EDGE ( 'NONE', *, *, #196, .T. ) ;
#204 = DIRECTION ( 'NONE',  ( 0.000000000000000000, 0.000000000000000000, 1.000000000000000000 ) ) ;
#205 = DIRECTION ( 'NONE',  ( 1.000000000000000000, 0.000000000000000000, 0.000000000000000000 ) ) ;
#206 = FACE_OUTER_BOUND ( 'NONE', #222, .T. ) ;
#207 = CLOSED_SHELL ( 'NONE', ( #134, #62, #283, #286, #73, #146, #60, #45, #35 ) ) ;
#208 = AXIS2_PLACEMENT_3D ( 'NONE', #92, #19, #262 ) ;
#209 = DIRECTION ( 'NONE',  ( -0.000000000000000000, -0.000000000000000000, -1.000000000000000000 ) ) ;
#210 = DIRECTION ( 'NONE',  ( -0.000000000000000000, -0.000000000000000000, -1.000000000000000000 ) ) ;
#211 = DIRECTION ( 'NONE',  ( 1.000000000000000000, 0.000000000000000000, 0.000000000000000000 ) ) ;
#212 = AXIS2_PLACEMENT_3D ( 'NONE', #157, #180, #270 ) ;
#213 = CARTESIAN_POINT ( 'NONE',  ( 13.00000000000000178, 1.592040838891559293E-15, 8.000000000000000000 ) ) ;
#214 = DIRECTION ( 'NONE',  ( 0.000000000000000000, 0.000000000000000000, 1.000000000000000000 ) ) ;
#215 = PERSON_AND_ORGANIZATION ( #90, #264 ) ;
#216 = SHAPE_DEFINITION_REPRESENTATION ( #52, #173 ) ;
#217 =( NAMED_UNIT ( * ) SI_UNIT ( $, .STERADIAN. ) SOLID_ANGLE_UNIT ( ) );
#218 = PERSON_AND_ORGANIZATION ( #90, #264 ) ;
#219 = VERTEX_POINT ( 'NONE', #93 ) ;
#220 = ORIENTED_EDGE ( 'NONE', *, *, #171, .F. ) ;
#221 = CIRCLE ( 'NONE', #167, 10.00000000000000000 ) ;
#222 = EDGE_LOOP ( 'NONE', ( #31, #177, #178, #132 ) ) ;
#223 = CC_DESIGN_DATE_AND_TIME_ASSIGNMENT ( #1, #267, ( #23 ) ) ;
#224 = FACE_OUTER_BOUND ( 'NONE', #159, .T. ) ;
#225 = LINE ( 'NONE', #160, #26 ) ;
#226 = DIRECTION ( 'NONE',  ( -0.000000000000000000, -0.000000000000000000, -1.000000000000000000 ) ) ;
#227 = AXIS2_PLACEMENT_3D ( 'NONE', #190, #237, #65 ) ;
#228 = EDGE_CURVE ( 'NONE', #135, #7, #221, .T. ) ;
#229 = ORIENTED_EDGE ( 'NONE', *, *, #154, .T. ) ;
#230 = VERTEX_POINT ( 'NONE', #185 ) ;
#231 = CC_DESIGN_PERSON_AND_ORGANIZATION_ASSIGNMENT ( #218, #266, ( #188 ) ) ;
#232 = LINE ( 'NONE', #66, #94 ) ;
#233 = CARTESIAN_POINT ( 'NONE',  ( 0.000000000000000000, 0.000000000000000000, 8.000000000000000000 ) ) ;
#234 = AXIS2_PLACEMENT_3D ( 'NONE', #133, #153, #248 ) ;
#235 = CARTESIAN_POINT ( 'NONE',  ( -10.00000000000000000, 0.000000000000000000, 1208.000000000000000 ) ) ;
#236 = EDGE_CURVE ( 'NONE', #140, #290, #295, .T. ) ;
#237 = DIRECTION ( 'NONE',  ( 0.000000000000000000, 0.000000000000000000, 1.000000000000000000 ) ) ;
#238 = CARTESIAN_POINT ( 'NONE',  ( 0.000000000000000000, 0.000000000000000000, 8.000000000000000000 ) ) ;
#239 = AXIS2_PLACEMENT_3D ( 'NONE', #303, #279, #43 ) ;
#240 = MANIFOLD_SOLID_BREP ( 'Zaoblit1', #207 ) ;
#241 = DATE_AND_TIME ( #265, #18 ) ;
#242 = PERSON_AND_ORGANIZATION ( #90, #264 ) ;
#243 = EDGE_CURVE ( 'NONE', #176, #230, #127, .T. ) ;
#244 = COORDINATED_UNIVERSAL_TIME_OFFSET ( 1, 0, .AHEAD. ) ;
#245 = VECTOR ( 'NONE', #136, 1000.000000000000000 ) ;
#246 = AXIS2_PLACEMENT_3D ( 'NONE', #116, #299, #162 ) ;
#247 = ORIENTED_EDGE ( 'NONE', *, *, #192, .T. ) ;
#248 = DIRECTION ( 'NONE',  ( 0.000000000000000000, 0.000000000000000000, -1.000000000000000000 ) ) ;
#249 = ORIENTED_EDGE ( 'NONE', *, *, #85, .T. ) ;
#250 = CC_DESIGN_PERSON_AND_ORGANIZATION_ASSIGNMENT ( #125, #72, ( #188 ) ) ;
#251 = DIRECTION ( 'NONE',  ( -1.000000000000000000, 0.000000000000000000, 0.000000000000000000 ) ) ;
#252 = CIRCLE ( 'NONE', #234, 0.2000000000000005107 ) ;
#253 = EDGE_LOOP ( 'NONE', ( #111, #220, #249, #37 ) ) ;
#254 = CARTESIAN_POINT ( 'NONE',  ( 10.00000000000000000, 1.224646799147353256E-15, 8.199999999999985079 ) ) ;
#255 = EDGE_CURVE ( 'NONE', #290, #176, #189, .T. ) ;
#256 = EDGE_LOOP ( 'NONE', ( #105, #155, #6, #86 ) ) ;
#257 = VECTOR ( 'NONE', #44, 1000.000000000000000 ) ;
#258 = PLANE ( 'NONE',  #227 ) ;
#259 = CARTESIAN_POINT ( 'NONE',  ( 13.00000000000000178, 1.592040838891559293E-15, 8.000000000000000000 ) ) ;
#260 = AXIS2_PLACEMENT_3D ( 'NONE', #238, #22, #121 ) ;
#261 = CARTESIAN_POINT ( 'NONE',  ( -13.00000000000000178, 0.000000000000000000, 8.000000000000000000 ) ) ;
#262 = DIRECTION ( 'NONE',  ( 1.000000000000000000, 0.000000000000000000, 0.000000000000000000 ) ) ;
#263 = PERSON_AND_ORGANIZATION ( #90, #264 ) ;
#264 = ORGANIZATION ( 'NEURÈENÝ', 'NEURÈENÝ', '' ) ;
#265 = CALENDAR_DATE ( 2022, 7, 7 ) ;
#266 = PERSON_AND_ORGANIZATION_ROLE ( 'creator' ) ;
#267 = DATE_TIME_ROLE ( 'classification_date' ) ;
#268 =( GEOMETRIC_REPRESENTATION_CONTEXT ( 3 ) GLOBAL_UNCERTAINTY_ASSIGNED_CONTEXT ( ( #269 ) ) GLOBAL_UNIT_ASSIGNED_CONTEXT ( ( #95, #141, #217 ) ) REPRESENTATION_CONTEXT ( 'NONE', 'WORKASPACE' ) );
#269 = UNCERTAINTY_MEASURE_WITH_UNIT (LENGTH_MEASURE( 1.000000000000000082E-05 ), #95, 'distance_accuracy_value', 'NONE');
#270 = DIRECTION ( 'NONE',  ( 1.000000000000000000, 0.000000000000000000, -0.000000000000000000 ) ) ;
#271 = CARTESIAN_POINT ( 'NONE',  ( -10.20000000000000107, 1.249139735130300365E-15, 8.199999999999985079 ) ) ;
#272 = CC_DESIGN_APPROVAL ( #48, ( #187 ) ) ;
#273 = EDGE_CURVE ( 'NONE', #230, #176, #284, .T. ) ;
#274 = CARTESIAN_POINT ( 'NONE',  ( 0.000000000000000000, 0.000000000000000000, 8.199999999999985079 ) ) ;
#275 = CARTESIAN_POINT ( 'NONE',  ( 0.000000000000000000, 0.000000000000000000, 1208.000000000000000 ) ) ;
#276 = DIRECTION ( 'NONE',  ( 1.000000000000000000, 0.000000000000000000, -0.000000000000000000 ) ) ;
#277 = APPROVAL_PERSON_ORGANIZATION ( #4, #137, #288 ) ;
#278 = DIRECTION ( 'NONE',  ( 1.000000000000000000, 0.000000000000000000, 0.000000000000000000 ) ) ;
#279 = DIRECTION ( 'NONE',  ( 0.000000000000000000, 0.000000000000000000, 1.000000000000000000 ) ) ;
#280 = CARTESIAN_POINT ( 'NONE',  ( -10.20000000000000107, 1.249139735130300365E-15, 7.999999999999992895 ) ) ;
#281 = CIRCLE ( 'NONE', #82, 10.20000000000000107 ) ;
#282 = DIRECTION ( 'NONE',  ( -1.000000000000000000, 0.000000000000000000, 0.000000000000000000 ) ) ;
#283 = ADVANCED_FACE ( 'NONE', ( #164 ), #47, .T. ) ;
#284 = CIRCLE ( 'NONE', #208, 13.00000000000000178 ) ;
#285 = APPROVAL_DATE_TIME ( #104, #137 ) ;
#286 = ADVANCED_FACE ( 'NONE', ( #70 ), #165, .T. ) ;
#287 = COORDINATED_UNIVERSAL_TIME_OFFSET ( 1, 0, .AHEAD. ) ;
#288 = APPROVAL_ROLE ( '' ) ;
#289 = CIRCLE ( 'NONE', #161, 10.20000000000000107 ) ;
#290 = VERTEX_POINT ( 'NONE', #213 ) ;
#291 = ORIENTED_EDGE ( 'NONE', *, *, #29, .T. ) ;
#292 = CARTESIAN_POINT ( 'NONE',  ( 0.000000000000000000, 0.000000000000000000, 8.000000000000000000 ) ) ;
#293 = EDGE_LOOP ( 'NONE', ( #103, #138, #39, #53 ) ) ;
#294 = LINE ( 'NONE', #59, #245 ) ;
#295 = CIRCLE ( 'NONE', #239, 13.00000000000000178 ) ;
#296 = PRODUCT_RELATED_PRODUCT_CATEGORY ( 'detail', '', ( #78 ) ) ;
#297 = FACE_OUTER_BOUND ( 'NONE', #79, .T. ) ;
#298 = DIRECTION ( 'NONE',  ( 1.000000000000000000, 0.000000000000000000, 0.000000000000000000 ) ) ;
#299 = DIRECTION ( 'NONE',  ( 0.000000000000000000, 0.000000000000000000, 1.000000000000000000 ) ) ;
#300 = TOROIDAL_SURFACE ( 'NONE', #194, 10.20000000000000107, 0.2000000000000000111 ) ;
#301 = DIRECTION ( 'NONE',  ( 0.000000000000000000, 0.000000000000000000, 1.000000000000000000 ) ) ;
#302 = DIRECTION ( 'NONE',  ( 1.000000000000000000, 0.000000000000000000, 0.000000000000000000 ) ) ;
#303 = CARTESIAN_POINT ( 'NONE',  ( 0.000000000000000000, 0.000000000000000000, 8.000000000000000000 ) ) ;
#304 = AXIS2_PLACEMENT_3D ( 'NONE', #109, #83, #205 ) ;
#305 = CIRCLE ( 'NONE', #32, 13.00000000000000178 ) ;
#306 = CC_DESIGN_PERSON_AND_ORGANIZATION_ASSIGNMENT ( #50, #96, ( #78 ) ) ;
#307 = CARTESIAN_POINT ( 'NONE',  ( 0.000000000000000000, 0.000000000000000000, 0.000000000000000000 ) ) ;
ENDSEC;
END-ISO-10303-21;
