ISO-10303-21;
HEADER;
FILE_DESCRIPTION (( 'STEP AP203' ),
    '1' );
FILE_NAME ('7367.STEP',
    '2022-07-07T09:54:37',
    ( '' ),
    ( '' ),
    'SwSTEP 2.0',
    'SolidWorks 2019',
    '' );
FILE_SCHEMA (( 'CONFIG_CONTROL_DESIGN' ));
ENDSEC;

DATA;
#1 = EDGE_CURVE ( 'NONE', #31, #302, #32, .T. ) ;
#2 = APPROVAL_DATE_TIME ( #257, #264 ) ;
#3 = PRODUCT_RELATED_PRODUCT_CATEGORY ( 'detail', '', ( #199 ) ) ;
#4 = DATE_AND_TIME ( #237, #33 ) ;
#5 = AXIS2_PLACEMENT_3D ( 'NONE', #26, #120, #216 ) ;
#6 = EDGE_LOOP ( 'NONE', ( #276, #226, #14, #119 ) ) ;
#7 = PRODUCT_DEFINITION_FORMATION_WITH_SPECIFIED_SOURCE ( 'LIBOVOLNÝ', '', #199, .NOT_KNOWN. ) ;
#8 = CARTESIAN_POINT ( 'NONE',  ( 0.000000000000000000, 0.000000000000000000, 0.000000000000000000 ) ) ;
#9 = AXIS2_PLACEMENT_3D ( 'NONE', #252, #224, #294 ) ;
#10 = LINE ( 'NONE', #171, #39 ) ;
#11 = CARTESIAN_POINT ( 'NONE',  ( -5.200000000000001066, 6.368163355566237368E-16, 5.000000000000005329 ) ) ;
#12 = EDGE_CURVE ( 'NONE', #142, #144, #145, .T. ) ;
#13 = AXIS2_PLACEMENT_3D ( 'NONE', #100, #191, #238 ) ;
#14 = ORIENTED_EDGE ( 'NONE', *, *, #282, .T. ) ;
#15 = FACE_OUTER_BOUND ( 'NONE', #254, .T. ) ;
#16 = CC_DESIGN_PERSON_AND_ORGANIZATION_ASSIGNMENT ( #208, #135, ( #199 ) ) ;
#17 = DIRECTION ( 'NONE',  ( -0.000000000000000000, -0.000000000000000000, -1.000000000000000000 ) ) ;
#18 = APPROVAL_PERSON_ORGANIZATION ( #140, #127, #65 ) ;
#19 = ORIENTED_EDGE ( 'NONE', *, *, #42, .F. ) ;
#20 = FACE_BOUND ( 'NONE', #53, .T. ) ;
#21 = CARTESIAN_POINT ( 'NONE',  ( 5.200000000000001066, 0.000000000000000000, 5.000000000000005329 ) ) ;
#22 = CC_DESIGN_PERSON_AND_ORGANIZATION_ASSIGNMENT ( #167, #260, ( #7 ) ) ;
#23 = PERSON_AND_ORGANIZATION ( #24, #220 ) ;
#24 = PERSON ( 'NEURÈENÝ', 'NEURÈENÝ', 'NEURÈENÝ', ('NEURÈENÝ'), ('NEURÈENÝ'), ('NEURÈENÝ') ) ;
#25 = ORIENTED_EDGE ( 'NONE', *, *, #137, .T. ) ;
#26 = CARTESIAN_POINT ( 'NONE',  ( 0.000000000000000000, 0.000000000000000000, 255.0000000000000000 ) ) ;
#27 = APPROVAL_STATUS ( 'not_yet_approved' ) ;
#28 = DIRECTION ( 'NONE',  ( 1.000000000000000000, 0.000000000000000000, 0.000000000000000000 ) ) ;
#29 = ADVANCED_FACE ( 'NONE', ( #218 ), #52, .T. ) ;
#30 = CARTESIAN_POINT ( 'NONE',  ( 0.000000000000000000, 0.000000000000000000, 5.000000000000000000 ) ) ;
#31 = VERTEX_POINT ( 'NONE', #11 ) ;
#32 = CIRCLE ( 'NONE', #150, 5.200000000000001066 ) ;
#33 = LOCAL_TIME ( 11, 54, 37.00000000000000000, #54 ) ;
#34 = DIRECTION ( 'NONE',  ( 1.000000000000000000, 0.000000000000000000, 0.000000000000000000 ) ) ;
#35 = EDGE_CURVE ( 'NONE', #93, #266, #45, .T. ) ;
#36 = AXIS2_PLACEMENT_3D ( 'NONE', #270, #40, #34 ) ;
#37 = CARTESIAN_POINT ( 'NONE',  ( 5.000000000000000888, 6.123233995736767268E-16, 5.200000000000009948 ) ) ;
#38 = DIRECTION ( 'NONE',  ( 0.000000000000000000, 0.000000000000000000, 1.000000000000000000 ) ) ;
#39 = VECTOR ( 'NONE', #268, 1000.000000000000000 ) ;
#40 = DIRECTION ( 'NONE',  ( 0.000000000000000000, 0.000000000000000000, 1.000000000000000000 ) ) ;
#41 = ORIENTED_EDGE ( 'NONE', *, *, #148, .T. ) ;
#42 = EDGE_CURVE ( 'NONE', #43, #144, #99, .T. ) ;
#43 = VERTEX_POINT ( 'NONE', #77 ) ;
#44 = DIRECTION ( 'NONE',  ( -1.000000000000000000, 0.000000000000000000, 0.000000000000000000 ) ) ;
#45 = CIRCLE ( 'NONE', #13, 5.000000000000000888 ) ;
#46 = CC_DESIGN_DATE_AND_TIME_ASSIGNMENT ( #72, #164, ( #172 ) ) ;
#47 = ORIENTED_EDGE ( 'NONE', *, *, #185, .F. ) ;
#48 = DIRECTION ( 'NONE',  ( -1.000000000000000000, 1.224646799147353454E-16, 0.000000000000000000 ) ) ;
#49 = APPLICATION_PROTOCOL_DEFINITION ( 'international standard', 'config_control_design', 1994, #233 ) ;
#50 = ADVANCED_FACE ( 'NONE', ( #291 ), #197, .T. ) ;
#51 = ORIENTED_EDGE ( 'NONE', *, *, #250, .F. ) ;
#52 = CYLINDRICAL_SURFACE ( 'NONE', #133, 5.000000000000000888 ) ;
#53 = EDGE_LOOP ( 'NONE', ( #25, #116 ) ) ;
#54 = COORDINATED_UNIVERSAL_TIME_OFFSET ( 1, 0, .AHEAD. ) ;
#55 = LOCAL_TIME ( 11, 54, 37.00000000000000000, #98 ) ;
#56 = CARTESIAN_POINT ( 'NONE',  ( 5.000000000000000888, 6.123233995736767268E-16, 255.0000000000000000 ) ) ;
#57 =( GEOMETRIC_REPRESENTATION_CONTEXT ( 3 ) GLOBAL_UNCERTAINTY_ASSIGNED_CONTEXT ( ( #203 ) ) GLOBAL_UNIT_ASSIGNED_CONTEXT ( ( #279, #258, #204 ) ) REPRESENTATION_CONTEXT ( 'NONE', 'WORKASPACE' ) );
#58 = ORIENTED_EDGE ( 'NONE', *, *, #148, .F. ) ;
#59 = CARTESIAN_POINT ( 'NONE',  ( -5.200000000000001066, 6.368163355566237368E-16, 5.200000000000009948 ) ) ;
#60 = CYLINDRICAL_SURFACE ( 'NONE', #193, 8.000000000000000000 ) ;
#61 = AXIS2_PLACEMENT_3D ( 'NONE', #91, #184, #234 ) ;
#62 = DIRECTION ( 'NONE',  ( 0.000000000000000000, 0.000000000000000000, 1.000000000000000000 ) ) ;
#63 = FACE_OUTER_BOUND ( 'NONE', #123, .T. ) ;
#64 = EDGE_LOOP ( 'NONE', ( #166, #73, #103, #192 ) ) ;
#65 = APPROVAL_ROLE ( '' ) ;
#66 = ORIENTED_EDGE ( 'NONE', *, *, #185, .T. ) ;
#67 = DESIGN_CONTEXT ( 'detailed design', #79, 'design' ) ;
#68 = CARTESIAN_POINT ( 'NONE',  ( 5.000000000000000888, 6.123233995736767268E-16, 255.0000000000000000 ) ) ;
#69 = CARTESIAN_POINT ( 'NONE',  ( 0.000000000000000000, 0.000000000000000000, 0.000000000000000000 ) ) ;
#70 = COORDINATED_UNIVERSAL_TIME_OFFSET ( 1, 0, .AHEAD. ) ;
#71 = AXIS2_PLACEMENT_3D ( 'NONE', #297, #38, #111 ) ;
#72 = DATE_AND_TIME ( #183, #277 ) ;
#73 = ORIENTED_EDGE ( 'NONE', *, *, #240, .F. ) ;
#74 = PERSON_AND_ORGANIZATION ( #24, #220 ) ;
#75 = DIRECTION ( 'NONE',  ( -0.000000000000000000, -0.000000000000000000, -1.000000000000000000 ) ) ;
#76 = ORIENTED_EDGE ( 'NONE', *, *, #137, .F. ) ;
#77 = CARTESIAN_POINT ( 'NONE',  ( 8.000000000000000000, 9.797174393178825657E-16, 0.000000000000000000 ) ) ;
#78 = CARTESIAN_POINT ( 'NONE',  ( 0.000000000000000000, 0.000000000000000000, 5.000000000000000000 ) ) ;
#79 = APPLICATION_CONTEXT ( 'configuration controlled 3d designs of mechanical parts and assemblies' ) ;
#80 = AXIS2_PLACEMENT_3D ( 'NONE', #81, #175, #126 ) ;
#81 = CARTESIAN_POINT ( 'NONE',  ( 0.000000000000000000, 0.000000000000000000, 0.000000000000000000 ) ) ;
#82 = DIRECTION ( 'NONE',  ( 0.000000000000000000, 0.000000000000000000, -1.000000000000000000 ) ) ;
#83 = FACE_OUTER_BOUND ( 'NONE', #87, .T. ) ;
#84 = AXIS2_PLACEMENT_3D ( 'NONE', #209, #307, #228 ) ;
#85 = CARTESIAN_POINT ( 'NONE',  ( 0.000000000000000000, 0.000000000000000000, 5.000000000000000000 ) ) ;
#86 = EDGE_CURVE ( 'NONE', #168, #43, #10, .T. ) ;
#87 = EDGE_LOOP ( 'NONE', ( #101, #19 ) ) ;
#88 = DIRECTION ( 'NONE',  ( 0.000000000000000000, 0.000000000000000000, 1.000000000000000000 ) ) ;
#89 = EDGE_LOOP ( 'NONE', ( #41, #66 ) ) ;
#90 = CIRCLE ( 'NONE', #36, 5.000000000000000888 ) ;
#91 = CARTESIAN_POINT ( 'NONE',  ( 0.000000000000000000, 0.000000000000000000, 5.200000000000009948 ) ) ;
#92 = CC_DESIGN_PERSON_AND_ORGANIZATION_ASSIGNMENT ( #74, #267, ( #303 ) ) ;
#93 = VERTEX_POINT ( 'NONE', #56 ) ;
#94 = VECTOR ( 'NONE', #236, 1000.000000000000000 ) ;
#95 = MECHANICAL_CONTEXT ( 'NONE', #233, 'mechanical' ) ;
#96 = PERSON_AND_ORGANIZATION ( #24, #220 ) ;
#97 = PERSON_AND_ORGANIZATION ( #24, #220 ) ;
#98 = COORDINATED_UNIVERSAL_TIME_OFFSET ( 1, 0, .AHEAD. ) ;
#99 = CIRCLE ( 'NONE', #170, 8.000000000000000000 ) ;
#100 = CARTESIAN_POINT ( 'NONE',  ( 0.000000000000000000, 0.000000000000000000, 255.0000000000000000 ) ) ;
#101 = ORIENTED_EDGE ( 'NONE', *, *, #159, .F. ) ;
#102 = SECURITY_CLASSIFICATION_LEVEL ( 'unclassified' ) ;
#103 = ORIENTED_EDGE ( 'NONE', *, *, #106, .T. ) ;
#104 = DIRECTION ( 'NONE',  ( -0.000000000000000000, -0.000000000000000000, -1.000000000000000000 ) ) ;
#105 = ORIENTED_EDGE ( 'NONE', *, *, #86, .T. ) ;
#106 = EDGE_CURVE ( 'NONE', #266, #130, #147, .T. ) ;
#107 = AXIS2_PLACEMENT_3D ( 'NONE', #223, #219, #200 ) ;
#108 = DIRECTION ( 'NONE',  ( 1.000000000000000000, 0.000000000000000000, 0.000000000000000000 ) ) ;
#109 = DIRECTION ( 'NONE',  ( 1.000000000000000000, 0.000000000000000000, 0.000000000000000000 ) ) ;
#110 = CIRCLE ( 'NONE', #107, 8.000000000000000000 ) ;
#111 = DIRECTION ( 'NONE',  ( 1.000000000000000000, 0.000000000000000000, 0.000000000000000000 ) ) ;
#112 = CC_DESIGN_PERSON_AND_ORGANIZATION_ASSIGNMENT ( #97, #235, ( #7 ) ) ;
#113 = CLOSED_SHELL ( 'NONE', ( #196, #286, #176, #206, #304, #190, #29, #50, #229 ) ) ;
#114 = PLANE ( 'NONE',  #84 ) ;
#115 = DIRECTION ( 'NONE',  ( -0.000000000000000000, -0.000000000000000000, -1.000000000000000000 ) ) ;
#116 = ORIENTED_EDGE ( 'NONE', *, *, #1, .T. ) ;
#117 = CIRCLE ( 'NONE', #61, 5.000000000000000888 ) ;
#118 = DATE_AND_TIME ( #141, #55 ) ;
#119 = ORIENTED_EDGE ( 'NONE', *, *, #106, .F. ) ;
#120 = DIRECTION ( 'NONE',  ( 0.000000000000000000, 0.000000000000000000, 1.000000000000000000 ) ) ;
#121 = ORIENTED_EDGE ( 'NONE', *, *, #12, .T. ) ;
#122 = ORIENTED_EDGE ( 'NONE', *, *, #86, .F. ) ;
#123 = EDGE_LOOP ( 'NONE', ( #51, #160, #149, #290 ) ) ;
#124 = LOCAL_TIME ( 11, 54, 37.00000000000000000, #253 ) ;
#125 = CARTESIAN_POINT ( 'NONE',  ( -8.000000000000000000, 0.000000000000000000, 0.000000000000000000 ) ) ;
#126 = DIRECTION ( 'NONE',  ( 1.000000000000000000, 0.000000000000000000, -0.000000000000000000 ) ) ;
#127 = APPROVAL ( #278, 'NEURÈENÝ' ) ;
#128 = DIRECTION ( 'NONE',  ( 0.000000000000000000, -1.000000000000000000, 0.000000000000000000 ) ) ;
#129 = CARTESIAN_POINT ( 'NONE',  ( 0.000000000000000000, 0.000000000000000000, 5.200000000000009948 ) ) ;
#130 = VERTEX_POINT ( 'NONE', #292 ) ;
#131 = EDGE_LOOP ( 'NONE', ( #287, #214, #76, #244 ) ) ;
#132 = FACE_OUTER_BOUND ( 'NONE', #89, .T. ) ;
#133 = AXIS2_PLACEMENT_3D ( 'NONE', #212, #169, #242 ) ;
#134 = APPROVAL_PERSON_ORGANIZATION ( #265, #275, #262 ) ;
#135 = PERSON_AND_ORGANIZATION_ROLE ( 'design_owner' ) ;
#136 = TOROIDAL_SURFACE ( 'NONE', #9, 5.200000000000001066, 0.2000000000000000111 ) ;
#137 = EDGE_CURVE ( 'NONE', #302, #31, #213, .T. ) ;
#138 = CARTESIAN_POINT ( 'NONE',  ( 0.000000000000000000, 0.000000000000000000, 255.0000000000000000 ) ) ;
#139 = EDGE_CURVE ( 'NONE', #186, #302, #157, .T. ) ;
#140 = PERSON_AND_ORGANIZATION ( #24, #220 ) ;
#141 = CALENDAR_DATE ( 2022, 7, 7 ) ;
#142 = VERTEX_POINT ( 'NONE', #295 ) ;
#143 = VECTOR ( 'NONE', #256, 1000.000000000000000 ) ;
#144 = VERTEX_POINT ( 'NONE', #125 ) ;
#145 = LINE ( 'NONE', #217, #94 ) ;
#146 = APPROVAL_DATE_TIME ( #118, #275 ) ;
#147 = LINE ( 'NONE', #243, #251 ) ;
#148 = EDGE_CURVE ( 'NONE', #142, #168, #296, .T. ) ;
#149 = ORIENTED_EDGE ( 'NONE', *, *, #139, .T. ) ;
#150 = AXIS2_PLACEMENT_3D ( 'NONE', #30, #75, #263 ) ;
#151 = DIRECTION ( 'NONE',  ( 1.224646799147353207E-16, 1.000000000000000000, -0.000000000000000000 ) ) ;
#152 = CC_DESIGN_SECURITY_CLASSIFICATION ( #303, ( #7 ) ) ;
#153 = CARTESIAN_POINT ( 'NONE',  ( 0.000000000000000000, 0.000000000000000000, 5.000000000000000000 ) ) ;
#154 = CC_DESIGN_PERSON_AND_ORGANIZATION_ASSIGNMENT ( #96, #188, ( #172 ) ) ;
#155 = CIRCLE ( 'NONE', #232, 8.000000000000000000 ) ;
#156 = CARTESIAN_POINT ( 'NONE',  ( 8.000000000000000000, 9.797174393178825657E-16, 5.000000000000000000 ) ) ;
#157 = CIRCLE ( 'NONE', #271, 0.1999999999999996503 ) ;
#158 = APPROVAL_ROLE ( '' ) ;
#159 = EDGE_CURVE ( 'NONE', #144, #43, #110, .T. ) ;
#160 = ORIENTED_EDGE ( 'NONE', *, *, #282, .F. ) ;
#161 = LINE ( 'NONE', #68, #143 ) ;
#162 = DIRECTION ( 'NONE',  ( 1.000000000000000000, 0.000000000000000000, 0.000000000000000000 ) ) ;
#163 = CALENDAR_DATE ( 2022, 7, 7 ) ;
#164 = DATE_TIME_ROLE ( 'creation_date' ) ;
#165 = DATE_TIME_ROLE ( 'classification_date' ) ;
#166 = ORIENTED_EDGE ( 'NONE', *, *, #259, .F. ) ;
#167 = PERSON_AND_ORGANIZATION ( #24, #220 ) ;
#168 = VERTEX_POINT ( 'NONE', #156 ) ;
#169 = DIRECTION ( 'NONE',  ( -0.000000000000000000, -0.000000000000000000, -1.000000000000000000 ) ) ;
#170 = AXIS2_PLACEMENT_3D ( 'NONE', #8, #195, #28 ) ;
#171 = CARTESIAN_POINT ( 'NONE',  ( 8.000000000000000000, 9.797174393178825657E-16, 5.000000000000000000 ) ) ;
#172 = PRODUCT_DEFINITION ( 'NEZNÁMÝ', '', #7, #67 ) ;
#173 = DIRECTION ( 'NONE',  ( -0.000000000000000000, -0.000000000000000000, -1.000000000000000000 ) ) ;
#174 = AXIS2_PLACEMENT_3D ( 'NONE', #85, #181, #274 ) ;
#175 = DIRECTION ( 'NONE',  ( 0.000000000000000000, 0.000000000000000000, 1.000000000000000000 ) ) ;
#176 = ADVANCED_FACE ( 'NONE', ( #15 ), #60, .T. ) ;
#177 = CARTESIAN_POINT ( 'NONE',  ( 0.000000000000000000, 0.000000000000000000, 5.000000000000000000 ) ) ;
#178 = ADVANCED_BREP_SHAPE_REPRESENTATION ( '7367', ( #189, #293 ), #57 ) ;
#179 = CC_DESIGN_APPROVAL ( #275, ( #303 ) ) ;
#180 = CARTESIAN_POINT ( 'NONE',  ( 0.000000000000000000, 0.000000000000000000, 5.000000000000000000 ) ) ;
#181 = DIRECTION ( 'NONE',  ( -0.000000000000000000, -0.000000000000000000, -1.000000000000000000 ) ) ;
#182 = ORIENTED_EDGE ( 'NONE', *, *, #42, .T. ) ;
#183 = CALENDAR_DATE ( 2022, 7, 7 ) ;
#184 = DIRECTION ( 'NONE',  ( 0.000000000000000000, 0.000000000000000000, 1.000000000000000000 ) ) ;
#185 = EDGE_CURVE ( 'NONE', #168, #142, #155, .T. ) ;
#186 = VERTEX_POINT ( 'NONE', #37 ) ;
#187 = CARTESIAN_POINT ( 'NONE',  ( -5.000000000000000888, 0.000000000000000000, 255.0000000000000000 ) ) ;
#188 = PERSON_AND_ORGANIZATION_ROLE ( 'creator' ) ;
#189 = MANIFOLD_SOLID_BREP ( 'Zaoblit1', #113 ) ;
#190 = ADVANCED_FACE ( 'NONE', ( #83 ), #249, .F. ) ;
#191 = DIRECTION ( 'NONE',  ( 0.000000000000000000, 0.000000000000000000, 1.000000000000000000 ) ) ;
#192 = ORIENTED_EDGE ( 'NONE', *, *, #194, .T. ) ;
#193 = AXIS2_PLACEMENT_3D ( 'NONE', #180, #17, #272 ) ;
#194 = EDGE_CURVE ( 'NONE', #130, #186, #283, .T. ) ;
#195 = DIRECTION ( 'NONE',  ( 0.000000000000000000, 0.000000000000000000, 1.000000000000000000 ) ) ;
#196 = ADVANCED_FACE ( 'NONE', ( #245 ), #225, .F. ) ;
#197 = PLANE ( 'NONE',  #5 ) ;
#198 = ORIENTED_EDGE ( 'NONE', *, *, #240, .T. ) ;
#199 = PRODUCT ( '7367', '7367', '', ( #95 ) ) ;
#200 = DIRECTION ( 'NONE',  ( 1.000000000000000000, 0.000000000000000000, 0.000000000000000000 ) ) ;
#201 = CYLINDRICAL_SURFACE ( 'NONE', #174, 8.000000000000000000 ) ;
#202 = DIRECTION ( 'NONE',  ( 0.000000000000000000, 0.000000000000000000, 1.000000000000000000 ) ) ;
#203 = UNCERTAINTY_MEASURE_WITH_UNIT (LENGTH_MEASURE( 1.000000000000000082E-05 ), #279, 'distance_accuracy_value', 'NONE');
#204 =( NAMED_UNIT ( * ) SI_UNIT ( $, .STERADIAN. ) SOLID_ANGLE_UNIT ( ) );
#205 = AXIS2_PLACEMENT_3D ( 'NONE', #129, #221, #109 ) ;
#206 = ADVANCED_FACE ( 'NONE', ( #299 ), #201, .T. ) ;
#207 = ORIENTED_EDGE ( 'NONE', *, *, #159, .T. ) ;
#208 = PERSON_AND_ORGANIZATION ( #24, #220 ) ;
#209 = CARTESIAN_POINT ( 'NONE',  ( 0.000000000000000000, 0.000000000000000000, 5.000000000000000000 ) ) ;
#210 = APPROVAL_DATE_TIME ( #241, #127 ) ;
#211 = CIRCLE ( 'NONE', #306, 0.1999999999999996503 ) ;
#212 = CARTESIAN_POINT ( 'NONE',  ( 0.000000000000000000, 0.000000000000000000, 255.0000000000000000 ) ) ;
#213 = CIRCLE ( 'NONE', #239, 5.200000000000001066 ) ;
#214 = ORIENTED_EDGE ( 'NONE', *, *, #250, .T. ) ;
#215 = AXIS2_PLACEMENT_3D ( 'NONE', #138, #115, #44 ) ;
#216 = DIRECTION ( 'NONE',  ( 1.000000000000000000, 0.000000000000000000, -0.000000000000000000 ) ) ;
#217 = CARTESIAN_POINT ( 'NONE',  ( -8.000000000000000000, 0.000000000000000000, 5.000000000000000000 ) ) ;
#218 = FACE_OUTER_BOUND ( 'NONE', #64, .T. ) ;
#219 = DIRECTION ( 'NONE',  ( 0.000000000000000000, 0.000000000000000000, 1.000000000000000000 ) ) ;
#220 = ORGANIZATION ( 'NEURÈENÝ', 'NEURÈENÝ', '' ) ;
#221 = DIRECTION ( 'NONE',  ( 0.000000000000000000, 0.000000000000000000, 1.000000000000000000 ) ) ;
#222 = LOCAL_TIME ( 11, 54, 37.00000000000000000, #70 ) ;
#223 = CARTESIAN_POINT ( 'NONE',  ( 0.000000000000000000, 0.000000000000000000, 0.000000000000000000 ) ) ;
#224 = DIRECTION ( 'NONE',  ( 0.000000000000000000, 0.000000000000000000, 1.000000000000000000 ) ) ;
#225 = TOROIDAL_SURFACE ( 'NONE', #71, 5.200000000000001066, 0.2000000000000000111 ) ;
#226 = ORIENTED_EDGE ( 'NONE', *, *, #259, .T. ) ;
#227 = ORIENTED_EDGE ( 'NONE', *, *, #35, .T. ) ;
#228 = DIRECTION ( 'NONE',  ( 1.000000000000000000, 0.000000000000000000, -0.000000000000000000 ) ) ;
#229 = ADVANCED_FACE ( 'NONE', ( #63 ), #136, .F. ) ;
#230 = CYLINDRICAL_SURFACE ( 'NONE', #215, 5.000000000000000888 ) ;
#231 = APPROVAL_STATUS ( 'not_yet_approved' ) ;
#232 = AXIS2_PLACEMENT_3D ( 'NONE', #153, #202, #247 ) ;
#233 = APPLICATION_CONTEXT ( 'configuration controlled 3d designs of mechanical parts and assemblies' ) ;
#234 = DIRECTION ( 'NONE',  ( 1.000000000000000000, 0.000000000000000000, 0.000000000000000000 ) ) ;
#235 = PERSON_AND_ORGANIZATION_ROLE ( 'design_supplier' ) ;
#236 = DIRECTION ( 'NONE',  ( -0.000000000000000000, -0.000000000000000000, -1.000000000000000000 ) ) ;
#237 = CALENDAR_DATE ( 2022, 7, 7 ) ;
#238 = DIRECTION ( 'NONE',  ( 1.000000000000000000, 0.000000000000000000, 0.000000000000000000 ) ) ;
#239 = AXIS2_PLACEMENT_3D ( 'NONE', #78, #173, #269 ) ;
#240 = EDGE_CURVE ( 'NONE', #266, #93, #90, .T. ) ;
#241 = DATE_AND_TIME ( #285, #124 ) ;
#242 = DIRECTION ( 'NONE',  ( -1.000000000000000000, 0.000000000000000000, 0.000000000000000000 ) ) ;
#243 = CARTESIAN_POINT ( 'NONE',  ( -5.000000000000000888, 0.000000000000000000, 255.0000000000000000 ) ) ;
#244 = ORIENTED_EDGE ( 'NONE', *, *, #139, .F. ) ;
#245 = FACE_OUTER_BOUND ( 'NONE', #131, .T. ) ;
#246 = CC_DESIGN_APPROVAL ( #264, ( #172 ) ) ;
#247 = DIRECTION ( 'NONE',  ( 1.000000000000000000, 0.000000000000000000, 0.000000000000000000 ) ) ;
#248 = PRODUCT_DEFINITION_SHAPE ( 'NONE', 'NONE',  #172 ) ;
#249 = PLANE ( 'NONE',  #80 ) ;
#250 = EDGE_CURVE ( 'NONE', #130, #31, #211, .T. ) ;
#251 = VECTOR ( 'NONE', #104, 1000.000000000000000 ) ;
#252 = CARTESIAN_POINT ( 'NONE',  ( 0.000000000000000000, 0.000000000000000000, 5.200000000000009948 ) ) ;
#253 = COORDINATED_UNIVERSAL_TIME_OFFSET ( 1, 0, .AHEAD. ) ;
#254 = EDGE_LOOP ( 'NONE', ( #47, #105, #182, #300 ) ) ;
#255 = FACE_OUTER_BOUND ( 'NONE', #6, .T. ) ;
#256 = DIRECTION ( 'NONE',  ( -0.000000000000000000, -0.000000000000000000, -1.000000000000000000 ) ) ;
#257 = DATE_AND_TIME ( #163, #222 ) ;
#258 =( NAMED_UNIT ( * ) PLANE_ANGLE_UNIT ( ) SI_UNIT ( $, .RADIAN. ) );
#259 = EDGE_CURVE ( 'NONE', #93, #186, #161, .T. ) ;
#260 = PERSON_AND_ORGANIZATION_ROLE ( 'creator' ) ;
#261 = EDGE_LOOP ( 'NONE', ( #122, #58, #121, #207 ) ) ;
#262 = APPROVAL_ROLE ( '' ) ;
#263 = DIRECTION ( 'NONE',  ( 1.000000000000000000, 0.000000000000000000, 0.000000000000000000 ) ) ;
#264 = APPROVAL ( #231, 'NEURÈENÝ' ) ;
#265 = PERSON_AND_ORGANIZATION ( #24, #220 ) ;
#266 = VERTEX_POINT ( 'NONE', #187 ) ;
#267 = PERSON_AND_ORGANIZATION_ROLE ( 'classification_officer' ) ;
#268 = DIRECTION ( 'NONE',  ( -0.000000000000000000, -0.000000000000000000, -1.000000000000000000 ) ) ;
#269 = DIRECTION ( 'NONE',  ( 1.000000000000000000, 0.000000000000000000, 0.000000000000000000 ) ) ;
#270 = CARTESIAN_POINT ( 'NONE',  ( 0.000000000000000000, 0.000000000000000000, 255.0000000000000000 ) ) ;
#271 = AXIS2_PLACEMENT_3D ( 'NONE', #273, #128, #82 ) ;
#272 = DIRECTION ( 'NONE',  ( -1.000000000000000000, 0.000000000000000000, 0.000000000000000000 ) ) ;
#273 = CARTESIAN_POINT ( 'NONE',  ( 5.200000000000001066, 0.000000000000000000, 5.200000000000009948 ) ) ;
#274 = DIRECTION ( 'NONE',  ( -1.000000000000000000, 0.000000000000000000, 0.000000000000000000 ) ) ;
#275 = APPROVAL ( #27, 'NEURÈENÝ' ) ;
#276 = ORIENTED_EDGE ( 'NONE', *, *, #35, .F. ) ;
#277 = LOCAL_TIME ( 11, 54, 37.00000000000000000, #305 ) ;
#278 = APPROVAL_STATUS ( 'not_yet_approved' ) ;
#279 =( LENGTH_UNIT ( ) NAMED_UNIT ( * ) SI_UNIT ( .MILLI., .METRE. ) );
#280 = AXIS2_PLACEMENT_3D ( 'NONE', #177, #62, #108 ) ;
#281 = EDGE_LOOP ( 'NONE', ( #198, #227 ) ) ;
#282 = EDGE_CURVE ( 'NONE', #186, #130, #117, .T. ) ;
#283 = CIRCLE ( 'NONE', #205, 5.000000000000000888 ) ;
#284 = APPLICATION_PROTOCOL_DEFINITION ( 'international standard', 'config_control_design', 1994, #79 ) ;
#285 = CALENDAR_DATE ( 2022, 7, 7 ) ;
#286 = ADVANCED_FACE ( 'NONE', ( #255 ), #230, .T. ) ;
#287 = ORIENTED_EDGE ( 'NONE', *, *, #194, .F. ) ;
#288 = SHAPE_DEFINITION_REPRESENTATION ( #248, #178 ) ;
#289 = CC_DESIGN_DATE_AND_TIME_ASSIGNMENT ( #4, #165, ( #303 ) ) ;
#290 = ORIENTED_EDGE ( 'NONE', *, *, #1, .F. ) ;
#291 = FACE_OUTER_BOUND ( 'NONE', #281, .T. ) ;
#292 = CARTESIAN_POINT ( 'NONE',  ( -5.000000000000000888, 0.000000000000000000, 5.200000000000009948 ) ) ;
#293 = AXIS2_PLACEMENT_3D ( 'NONE', #69, #88, #162 ) ;
#294 = DIRECTION ( 'NONE',  ( 1.000000000000000000, 0.000000000000000000, 0.000000000000000000 ) ) ;
#295 = CARTESIAN_POINT ( 'NONE',  ( -8.000000000000000000, 0.000000000000000000, 5.000000000000000000 ) ) ;
#296 = CIRCLE ( 'NONE', #280, 8.000000000000000000 ) ;
#297 = CARTESIAN_POINT ( 'NONE',  ( 0.000000000000000000, 0.000000000000000000, 5.200000000000009948 ) ) ;
#298 = CC_DESIGN_APPROVAL ( #127, ( #7 ) ) ;
#299 = FACE_OUTER_BOUND ( 'NONE', #261, .T. ) ;
#300 = ORIENTED_EDGE ( 'NONE', *, *, #12, .F. ) ;
#301 = APPROVAL_PERSON_ORGANIZATION ( #23, #264, #158 ) ;
#302 = VERTEX_POINT ( 'NONE', #21 ) ;
#303 = SECURITY_CLASSIFICATION ( '', '', #102 ) ;
#304 = ADVANCED_FACE ( 'NONE', ( #20, #132 ), #114, .T. ) ;
#305 = COORDINATED_UNIVERSAL_TIME_OFFSET ( 1, 0, .AHEAD. ) ;
#306 = AXIS2_PLACEMENT_3D ( 'NONE', #59, #151, #48 ) ;
#307 = DIRECTION ( 'NONE',  ( 0.000000000000000000, 0.000000000000000000, 1.000000000000000000 ) ) ;
ENDSEC;
END-ISO-10303-21;
