ISO-10303-21;
HEADER;
FILE_DESCRIPTION (( 'STEP AP203' ),
    '1' );
FILE_NAME ('72cd.STEP',
    '2023-02-12T12:40:09',
    ( '' ),
    ( '' ),
    'SwSTEP 2.0',
    'SolidWorks 2019',
    '' );
FILE_SCHEMA (( 'CONFIG_CONTROL_DESIGN' ));
ENDSEC;

DATA;
#1 = CARTESIAN_POINT ( 'NONE',  ( 0.000000000000000000, 0.000000000000000000, 3.000000000000000000 ) ) ;
#2 = ADVANCED_FACE ( 'NONE', ( #18, #138 ), #95, .T. ) ;
#3 = ORIENTED_EDGE ( 'NONE', *, *, #161, .F. ) ;
#4 = PERSON_AND_ORGANIZATION_ROLE ( 'design_owner' ) ;
#5 = ADVANCED_FACE ( 'NONE', ( #16 ), #175, .T. ) ;
#6 = VERTEX_POINT ( 'NONE', #160 ) ;
#7 = APPLICATION_CONTEXT ( 'configuration controlled 3d designs of mechanical parts and assemblies' ) ;
#8 = CALENDAR_DATE ( 2023, 12, 2 ) ;
#9 = CALENDAR_DATE ( 2023, 12, 2 ) ;
#10 = DIRECTION ( 'NONE',  ( 1.000000000000000000, 0.000000000000000000, 0.000000000000000000 ) ) ;
#11 = ORIENTED_EDGE ( 'NONE', *, *, #46, .T. ) ;
#12 = SECURITY_CLASSIFICATION_LEVEL ( 'unclassified' ) ;
#13 = AXIS2_PLACEMENT_3D ( 'NONE', #199, #185, #10 ) ;
#14 = PERSON_AND_ORGANIZATION_ROLE ( 'classification_officer' ) ;
#15 = PRODUCT_DEFINITION_SHAPE ( 'NONE', 'NONE',  #246 ) ;
#16 = FACE_OUTER_BOUND ( 'NONE', #33, .T. ) ;
#17 = EDGE_LOOP ( 'NONE', ( #78, #134, #139, #227 ) ) ;
#18 = FACE_BOUND ( 'NONE', #117, .T. ) ;
#19 = DIRECTION ( 'NONE',  ( 0.000000000000000000, 0.000000000000000000, 1.000000000000000000 ) ) ;
#20 = EDGE_CURVE ( 'NONE', #99, #171, #84, .T. ) ;
#21 = CARTESIAN_POINT ( 'NONE',  ( 0.000000000000000000, 0.000000000000000000, 0.000000000000000000 ) ) ;
#22 = DIRECTION ( 'NONE',  ( -0.000000000000000000, -0.000000000000000000, -1.000000000000000000 ) ) ;
#23 = AXIS2_PLACEMENT_3D ( 'NONE', #180, #53, #81 ) ;
#24 = DIRECTION ( 'NONE',  ( -0.000000000000000000, -0.000000000000000000, -1.000000000000000000 ) ) ;
#25 = CIRCLE ( 'NONE', #13, 4.000000000000000000 ) ;
#26 = EDGE_CURVE ( 'NONE', #119, #194, #88, .T. ) ;
#27 = CARTESIAN_POINT ( 'NONE',  ( 0.000000000000000000, 0.000000000000000000, 3.000000000000000000 ) ) ;
#28 = COORDINATED_UNIVERSAL_TIME_OFFSET ( 1, 0, .AHEAD. ) ;
#29 = CARTESIAN_POINT ( 'NONE',  ( 0.000000000000000000, 0.000000000000000000, 0.000000000000000000 ) ) ;
#30 = DIRECTION ( 'NONE',  ( 1.000000000000000000, 0.000000000000000000, 0.000000000000000000 ) ) ;
#31 = EDGE_LOOP ( 'NONE', ( #187, #3 ) ) ;
#32 = DATE_TIME_ROLE ( 'classification_date' ) ;
#33 = EDGE_LOOP ( 'NONE', ( #244, #176 ) ) ;
#34 = LOCAL_TIME ( 13, 40, 9.000000000000000000, #28 ) ;
#35 = LINE ( 'NONE', #196, #174 ) ;
#36 = DIRECTION ( 'NONE',  ( 0.000000000000000000, 0.000000000000000000, 1.000000000000000000 ) ) ;
#37 = DIRECTION ( 'NONE',  ( -0.000000000000000000, -0.000000000000000000, -1.000000000000000000 ) ) ;
#38 = DIRECTION ( 'NONE',  ( 0.000000000000000000, 0.000000000000000000, 1.000000000000000000 ) ) ;
#39 = LINE ( 'NONE', #121, #214 ) ;
#40 = AXIS2_PLACEMENT_3D ( 'NONE', #173, #231, #135 ) ;
#41 = LOCAL_TIME ( 13, 40, 9.000000000000000000, #70 ) ;
#42 = DIRECTION ( 'NONE',  ( 1.000000000000000000, 0.000000000000000000, 0.000000000000000000 ) ) ;
#43 =( GEOMETRIC_REPRESENTATION_CONTEXT ( 3 ) GLOBAL_UNCERTAINTY_ASSIGNED_CONTEXT ( ( #108 ) ) GLOBAL_UNIT_ASSIGNED_CONTEXT ( ( #239, #60, #83 ) ) REPRESENTATION_CONTEXT ( 'NONE', 'WORKASPACE' ) );
#44 = APPROVAL_STATUS ( 'not_yet_approved' ) ;
#45 = LINE ( 'NONE', #47, #253 ) ;
#46 = EDGE_CURVE ( 'NONE', #98, #171, #39, .T. ) ;
#47 = CARTESIAN_POINT ( 'NONE',  ( 2.000000000000000000, 2.449293598294705921E-16, 100.0000000000000000 ) ) ;
#48 = APPROVAL_STATUS ( 'not_yet_approved' ) ;
#49 = COORDINATED_UNIVERSAL_TIME_OFFSET ( 1, 0, .AHEAD. ) ;
#50 = ORIENTED_EDGE ( 'NONE', *, *, #20, .T. ) ;
#51 = APPROVAL_ROLE ( '' ) ;
#52 = AXIS2_PLACEMENT_3D ( 'NONE', #29, #203, #30 ) ;
#53 = DIRECTION ( 'NONE',  ( 0.000000000000000000, 0.000000000000000000, 1.000000000000000000 ) ) ;
#54 = ORIENTED_EDGE ( 'NONE', *, *, #141, .F. ) ;
#55 = ADVANCED_FACE ( 'NONE', ( #159 ), #80, .T. ) ;
#56 = CARTESIAN_POINT ( 'NONE',  ( -2.000000000000000000, 0.000000000000000000, 100.0000000000000000 ) ) ;
#57 = SECURITY_CLASSIFICATION ( '', '', #12 ) ;
#58 = EDGE_LOOP ( 'NONE', ( #132, #75, #129, #150 ) ) ;
#59 = DIRECTION ( 'NONE',  ( -1.000000000000000000, 0.000000000000000000, 0.000000000000000000 ) ) ;
#60 =( NAMED_UNIT ( * ) PLANE_ANGLE_UNIT ( ) SI_UNIT ( $, .RADIAN. ) );
#61 = DIRECTION ( 'NONE',  ( 1.000000000000000000, 0.000000000000000000, 0.000000000000000000 ) ) ;
#62 = CIRCLE ( 'NONE', #143, 4.000000000000000000 ) ;
#63 = APPROVAL_DATE_TIME ( #85, #166 ) ;
#64 = PRODUCT ( '72cd', '72cd', '', ( #241 ) ) ;
#65 = DESIGN_CONTEXT ( 'detailed design', #249, 'design' ) ;
#66 = DATE_TIME_ROLE ( 'creation_date' ) ;
#67 = LOCAL_TIME ( 13, 40, 9.000000000000000000, #49 ) ;
#68 = APPROVAL ( #152, 'NEURÈENÝ' ) ;
#69 = ORIENTED_EDGE ( 'NONE', *, *, #223, .T. ) ;
#70 = COORDINATED_UNIVERSAL_TIME_OFFSET ( 1, 0, .AHEAD. ) ;
#71 = PERSON_AND_ORGANIZATION ( #224, #218 ) ;
#72 = AXIS2_PLACEMENT_3D ( 'NONE', #252, #38, #79 ) ;
#73 = LOCAL_TIME ( 13, 40, 9.000000000000000000, #201 ) ;
#74 = PRODUCT_RELATED_PRODUCT_CATEGORY ( 'detail', '', ( #64 ) ) ;
#75 = ORIENTED_EDGE ( 'NONE', *, *, #168, .T. ) ;
#76 = ORIENTED_EDGE ( 'NONE', *, *, #46, .F. ) ;
#77 = CARTESIAN_POINT ( 'NONE',  ( 0.000000000000000000, 0.000000000000000000, 3.000000000000000000 ) ) ;
#78 = ORIENTED_EDGE ( 'NONE', *, *, #168, .F. ) ;
#79 = DIRECTION ( 'NONE',  ( 1.000000000000000000, 0.000000000000000000, 0.000000000000000000 ) ) ;
#80 = CYLINDRICAL_SURFACE ( 'NONE', #40, 2.000000000000000000 ) ;
#81 = DIRECTION ( 'NONE',  ( 1.000000000000000000, 0.000000000000000000, -0.000000000000000000 ) ) ;
#82 = DIRECTION ( 'NONE',  ( -1.000000000000000000, 0.000000000000000000, 0.000000000000000000 ) ) ;
#83 =( NAMED_UNIT ( * ) SI_UNIT ( $, .STERADIAN. ) SOLID_ANGLE_UNIT ( ) );
#84 = CIRCLE ( 'NONE', #183, 4.000000000000000000 ) ;
#85 = DATE_AND_TIME ( #8, #34 ) ;
#86 = PERSON_AND_ORGANIZATION_ROLE ( 'creator' ) ;
#87 = CYLINDRICAL_SURFACE ( 'NONE', #242, 4.000000000000000000 ) ;
#88 = CIRCLE ( 'NONE', #72, 2.000000000000000000 ) ;
#89 = ORIENTED_EDGE ( 'NONE', *, *, #161, .T. ) ;
#90 = PERSON_AND_ORGANIZATION_ROLE ( 'creator' ) ;
#91 = CC_DESIGN_SECURITY_CLASSIFICATION ( #57, ( #248 ) ) ;
#92 = COORDINATED_UNIVERSAL_TIME_OFFSET ( 1, 0, .AHEAD. ) ;
#93 = DIRECTION ( 'NONE',  ( 1.000000000000000000, 0.000000000000000000, -0.000000000000000000 ) ) ;
#94 = ADVANCED_FACE ( 'NONE', ( #179 ), #156, .T. ) ;
#95 = PLANE ( 'NONE',  #131 ) ;
#96 = AXIS2_PLACEMENT_3D ( 'NONE', #235, #19, #93 ) ;
#97 = CC_DESIGN_APPROVAL ( #68, ( #248 ) ) ;
#98 = VERTEX_POINT ( 'NONE', #213 ) ;
#99 = VERTEX_POINT ( 'NONE', #130 ) ;
#100 = CARTESIAN_POINT ( 'NONE',  ( 0.000000000000000000, 0.000000000000000000, 100.0000000000000000 ) ) ;
#101 = DIRECTION ( 'NONE',  ( 1.000000000000000000, 0.000000000000000000, 0.000000000000000000 ) ) ;
#102 = CC_DESIGN_PERSON_AND_ORGANIZATION_ASSIGNMENT ( #188, #14, ( #57 ) ) ;
#103 = EDGE_LOOP ( 'NONE', ( #76, #234, #154, #50 ) ) ;
#104 = EDGE_CURVE ( 'NONE', #119, #6, #35, .T. ) ;
#105 = DIRECTION ( 'NONE',  ( 0.000000000000000000, 0.000000000000000000, 1.000000000000000000 ) ) ;
#106 = PERSON_AND_ORGANIZATION ( #224, #218 ) ;
#107 = CIRCLE ( 'NONE', #123, 2.000000000000000000 ) ;
#108 = UNCERTAINTY_MEASURE_WITH_UNIT (LENGTH_MEASURE( 1.000000000000000082E-05 ), #239, 'distance_accuracy_value', 'NONE');
#109 = CARTESIAN_POINT ( 'NONE',  ( 0.000000000000000000, 0.000000000000000000, 100.0000000000000000 ) ) ;
#110 = PERSON_AND_ORGANIZATION ( #224, #218 ) ;
#111 = EDGE_CURVE ( 'NONE', #6, #127, #216, .T. ) ;
#112 = PERSON_AND_ORGANIZATION_ROLE ( 'design_supplier' ) ;
#113 = APPROVAL_PERSON_ORGANIZATION ( #220, #166, #200 ) ;
#114 = MANIFOLD_SOLID_BREP ( 'Pøidat vysunutím3', #207 ) ;
#115 = DIRECTION ( 'NONE',  ( 0.000000000000000000, 0.000000000000000000, 1.000000000000000000 ) ) ;
#116 = CC_DESIGN_DATE_AND_TIME_ASSIGNMENT ( #167, #66, ( #246 ) ) ;
#117 = EDGE_LOOP ( 'NONE', ( #206, #193 ) ) ;
#118 = DIRECTION ( 'NONE',  ( 1.000000000000000000, 0.000000000000000000, 0.000000000000000000 ) ) ;
#119 = VERTEX_POINT ( 'NONE', #56 ) ;
#120 = CARTESIAN_POINT ( 'NONE',  ( -4.000000000000000000, 0.000000000000000000, 3.000000000000000000 ) ) ;
#121 = CARTESIAN_POINT ( 'NONE',  ( 4.000000000000000000, 4.898587196589412829E-16, 3.000000000000000000 ) ) ;
#122 = LINE ( 'NONE', #120, #142 ) ;
#123 = AXIS2_PLACEMENT_3D ( 'NONE', #100, #136, #42 ) ;
#124 = FACE_OUTER_BOUND ( 'NONE', #225, .T. ) ;
#125 = DIRECTION ( 'NONE',  ( 0.000000000000000000, 0.000000000000000000, 1.000000000000000000 ) ) ;
#126 = APPROVAL_DATE_TIME ( #226, #68 ) ;
#127 = VERTEX_POINT ( 'NONE', #158 ) ;
#128 = CC_DESIGN_PERSON_AND_ORGANIZATION_ASSIGNMENT ( #106, #4, ( #64 ) ) ;
#129 = ORIENTED_EDGE ( 'NONE', *, *, #153, .T. ) ;
#130 = CARTESIAN_POINT ( 'NONE',  ( -4.000000000000000000, 0.000000000000000000, 0.000000000000000000 ) ) ;
#131 = AXIS2_PLACEMENT_3D ( 'NONE', #1, #192, #195 ) ;
#132 = ORIENTED_EDGE ( 'NONE', *, *, #157, .F. ) ;
#133 = DIRECTION ( 'NONE',  ( 0.000000000000000000, 0.000000000000000000, 1.000000000000000000 ) ) ;
#134 = ORIENTED_EDGE ( 'NONE', *, *, #26, .F. ) ;
#135 = DIRECTION ( 'NONE',  ( -1.000000000000000000, 0.000000000000000000, 0.000000000000000000 ) ) ;
#136 = DIRECTION ( 'NONE',  ( 0.000000000000000000, 0.000000000000000000, 1.000000000000000000 ) ) ;
#137 = CC_DESIGN_APPROVAL ( #219, ( #57 ) ) ;
#138 = FACE_OUTER_BOUND ( 'NONE', #178, .T. ) ;
#139 = ORIENTED_EDGE ( 'NONE', *, *, #104, .T. ) ;
#140 = APPLICATION_PROTOCOL_DEFINITION ( 'international standard', 'config_control_design', 1994, #249 ) ;
#141 = EDGE_CURVE ( 'NONE', #148, #99, #122, .T. ) ;
#142 = VECTOR ( 'NONE', #22, 1000.000000000000000 ) ;
#143 = AXIS2_PLACEMENT_3D ( 'NONE', #27, #105, #184 ) ;
#144 = CARTESIAN_POINT ( 'NONE',  ( 0.000000000000000000, 0.000000000000000000, 3.000000000000000000 ) ) ;
#145 = DIRECTION ( 'NONE',  ( -0.000000000000000000, -0.000000000000000000, -1.000000000000000000 ) ) ;
#146 = CARTESIAN_POINT ( 'NONE',  ( 0.000000000000000000, 0.000000000000000000, 0.000000000000000000 ) ) ;
#147 = ADVANCED_FACE ( 'NONE', ( #189 ), #155, .F. ) ;
#148 = VERTEX_POINT ( 'NONE', #250 ) ;
#149 = DATE_AND_TIME ( #205, #41 ) ;
#150 = ORIENTED_EDGE ( 'NONE', *, *, #104, .F. ) ;
#151 = CC_DESIGN_PERSON_AND_ORGANIZATION_ASSIGNMENT ( #221, #86, ( #246 ) ) ;
#152 = APPROVAL_STATUS ( 'not_yet_approved' ) ;
#153 = EDGE_CURVE ( 'NONE', #127, #6, #163, .T. ) ;
#154 = ORIENTED_EDGE ( 'NONE', *, *, #141, .T. ) ;
#155 = PLANE ( 'NONE',  #96 ) ;
#156 = CYLINDRICAL_SURFACE ( 'NONE', #251, 4.000000000000000000 ) ;
#157 = EDGE_CURVE ( 'NONE', #194, #119, #107, .T. ) ;
#158 = CARTESIAN_POINT ( 'NONE',  ( 2.000000000000000000, 2.449293598294705921E-16, 3.000000000000000000 ) ) ;
#159 = FACE_OUTER_BOUND ( 'NONE', #17, .T. ) ;
#160 = CARTESIAN_POINT ( 'NONE',  ( -2.000000000000000000, 0.000000000000000000, 3.000000000000000000 ) ) ;
#161 = EDGE_CURVE ( 'NONE', #171, #99, #170, .T. ) ;
#162 = CARTESIAN_POINT ( 'NONE',  ( 2.000000000000000000, 2.449293598294705921E-16, 100.0000000000000000 ) ) ;
#163 = CIRCLE ( 'NONE', #247, 2.000000000000000000 ) ;
#164 = APPROVAL_PERSON_ORGANIZATION ( #71, #68, #229 ) ;
#165 = FACE_OUTER_BOUND ( 'NONE', #58, .T. ) ;
#166 = APPROVAL ( #44, 'NEURÈENÝ' ) ;
#167 = DATE_AND_TIME ( #9, #73 ) ;
#168 = EDGE_CURVE ( 'NONE', #194, #127, #45, .T. ) ;
#169 = CALENDAR_DATE ( 2023, 12, 2 ) ;
#170 = CIRCLE ( 'NONE', #52, 4.000000000000000000 ) ;
#171 = VERTEX_POINT ( 'NONE', #217 ) ;
#172 = DATE_AND_TIME ( #169, #197 ) ;
#173 = CARTESIAN_POINT ( 'NONE',  ( 0.000000000000000000, 0.000000000000000000, 100.0000000000000000 ) ) ;
#174 = VECTOR ( 'NONE', #37, 1000.000000000000000 ) ;
#175 = PLANE ( 'NONE',  #23 ) ;
#176 = ORIENTED_EDGE ( 'NONE', *, *, #157, .T. ) ;
#177 = AXIS2_PLACEMENT_3D ( 'NONE', #109, #182, #82 ) ;
#178 = EDGE_LOOP ( 'NONE', ( #215, #69 ) ) ;
#179 = FACE_OUTER_BOUND ( 'NONE', #103, .T. ) ;
#180 = CARTESIAN_POINT ( 'NONE',  ( 0.000000000000000000, 0.000000000000000000, 100.0000000000000000 ) ) ;
#181 = CYLINDRICAL_SURFACE ( 'NONE', #177, 2.000000000000000000 ) ;
#182 = DIRECTION ( 'NONE',  ( -0.000000000000000000, -0.000000000000000000, -1.000000000000000000 ) ) ;
#183 = AXIS2_PLACEMENT_3D ( 'NONE', #21, #133, #233 ) ;
#184 = DIRECTION ( 'NONE',  ( 1.000000000000000000, 0.000000000000000000, 0.000000000000000000 ) ) ;
#185 = DIRECTION ( 'NONE',  ( 0.000000000000000000, 0.000000000000000000, 1.000000000000000000 ) ) ;
#186 = CALENDAR_DATE ( 2023, 12, 2 ) ;
#187 = ORIENTED_EDGE ( 'NONE', *, *, #20, .F. ) ;
#188 = PERSON_AND_ORGANIZATION ( #224, #218 ) ;
#189 = FACE_OUTER_BOUND ( 'NONE', #31, .T. ) ;
#190 = CC_DESIGN_DATE_AND_TIME_ASSIGNMENT ( #172, #32, ( #57 ) ) ;
#191 = ADVANCED_FACE ( 'NONE', ( #165 ), #181, .T. ) ;
#192 = DIRECTION ( 'NONE',  ( 0.000000000000000000, 0.000000000000000000, 1.000000000000000000 ) ) ;
#193 = ORIENTED_EDGE ( 'NONE', *, *, #153, .F. ) ;
#194 = VERTEX_POINT ( 'NONE', #162 ) ;
#195 = DIRECTION ( 'NONE',  ( 1.000000000000000000, 0.000000000000000000, -0.000000000000000000 ) ) ;
#196 = CARTESIAN_POINT ( 'NONE',  ( -2.000000000000000000, 0.000000000000000000, 100.0000000000000000 ) ) ;
#197 = LOCAL_TIME ( 13, 40, 9.000000000000000000, #92 ) ;
#198 = ADVANCED_BREP_SHAPE_REPRESENTATION ( '72cd', ( #114, #232 ), #43 ) ;
#199 = CARTESIAN_POINT ( 'NONE',  ( 0.000000000000000000, 0.000000000000000000, 3.000000000000000000 ) ) ;
#200 = APPROVAL_ROLE ( '' ) ;
#201 = COORDINATED_UNIVERSAL_TIME_OFFSET ( 1, 0, .AHEAD. ) ;
#202 = AXIS2_PLACEMENT_3D ( 'NONE', #77, #115, #101 ) ;
#203 = DIRECTION ( 'NONE',  ( 0.000000000000000000, 0.000000000000000000, 1.000000000000000000 ) ) ;
#204 = ADVANCED_FACE ( 'NONE', ( #124 ), #87, .T. ) ;
#205 = CALENDAR_DATE ( 2023, 12, 2 ) ;
#206 = ORIENTED_EDGE ( 'NONE', *, *, #111, .F. ) ;
#207 = CLOSED_SHELL ( 'NONE', ( #191, #204, #94, #2, #147, #55, #5 ) ) ;
#208 = PERSON_AND_ORGANIZATION ( #224, #218 ) ;
#209 = CC_DESIGN_APPROVAL ( #166, ( #246 ) ) ;
#210 = DIRECTION ( 'NONE',  ( -1.000000000000000000, 0.000000000000000000, 0.000000000000000000 ) ) ;
#211 = CC_DESIGN_PERSON_AND_ORGANIZATION_ASSIGNMENT ( #110, #112, ( #248 ) ) ;
#212 = CARTESIAN_POINT ( 'NONE',  ( 0.000000000000000000, 0.000000000000000000, 3.000000000000000000 ) ) ;
#213 = CARTESIAN_POINT ( 'NONE',  ( 4.000000000000000000, 4.898587196589412829E-16, 3.000000000000000000 ) ) ;
#214 = VECTOR ( 'NONE', #255, 1000.000000000000000 ) ;
#215 = ORIENTED_EDGE ( 'NONE', *, *, #230, .T. ) ;
#216 = CIRCLE ( 'NONE', #202, 2.000000000000000000 ) ;
#217 = CARTESIAN_POINT ( 'NONE',  ( 4.000000000000000000, 4.898587196589412829E-16, 0.000000000000000000 ) ) ;
#218 = ORGANIZATION ( 'NEURÈENÝ', 'NEURÈENÝ', '' ) ;
#219 = APPROVAL ( #48, 'NEURÈENÝ' ) ;
#220 = PERSON_AND_ORGANIZATION ( #224, #218 ) ;
#221 = PERSON_AND_ORGANIZATION ( #224, #218 ) ;
#222 = APPLICATION_PROTOCOL_DEFINITION ( 'international standard', 'config_control_design', 1994, #7 ) ;
#223 = EDGE_CURVE ( 'NONE', #98, #148, #25, .T. ) ;
#224 = PERSON ( 'NEURÈENÝ', 'NEURÈENÝ', 'NEURÈENÝ', ('NEURÈENÝ'), ('NEURÈENÝ'), ('NEURÈENÝ') ) ;
#225 = EDGE_LOOP ( 'NONE', ( #254, #11, #89, #54 ) ) ;
#226 = DATE_AND_TIME ( #186, #67 ) ;
#227 = ORIENTED_EDGE ( 'NONE', *, *, #111, .T. ) ;
#228 = SHAPE_DEFINITION_REPRESENTATION ( #15, #198 ) ;
#229 = APPROVAL_ROLE ( '' ) ;
#230 = EDGE_CURVE ( 'NONE', #148, #98, #62, .T. ) ;
#231 = DIRECTION ( 'NONE',  ( -0.000000000000000000, -0.000000000000000000, -1.000000000000000000 ) ) ;
#232 = AXIS2_PLACEMENT_3D ( 'NONE', #146, #125, #61 ) ;
#233 = DIRECTION ( 'NONE',  ( 1.000000000000000000, 0.000000000000000000, 0.000000000000000000 ) ) ;
#234 = ORIENTED_EDGE ( 'NONE', *, *, #230, .F. ) ;
#235 = CARTESIAN_POINT ( 'NONE',  ( 0.000000000000000000, 0.000000000000000000, 0.000000000000000000 ) ) ;
#236 = CC_DESIGN_PERSON_AND_ORGANIZATION_ASSIGNMENT ( #208, #90, ( #248 ) ) ;
#237 = DIRECTION ( 'NONE',  ( -0.000000000000000000, -0.000000000000000000, -1.000000000000000000 ) ) ;
#238 = CARTESIAN_POINT ( 'NONE',  ( 0.000000000000000000, 0.000000000000000000, 3.000000000000000000 ) ) ;
#239 =( LENGTH_UNIT ( ) NAMED_UNIT ( * ) SI_UNIT ( .MILLI., .METRE. ) );
#240 = APPROVAL_PERSON_ORGANIZATION ( #243, #219, #51 ) ;
#241 = MECHANICAL_CONTEXT ( 'NONE', #7, 'mechanical' ) ;
#242 = AXIS2_PLACEMENT_3D ( 'NONE', #144, #24, #59 ) ;
#243 = PERSON_AND_ORGANIZATION ( #224, #218 ) ;
#244 = ORIENTED_EDGE ( 'NONE', *, *, #26, .T. ) ;
#245 = APPROVAL_DATE_TIME ( #149, #219 ) ;
#246 = PRODUCT_DEFINITION ( 'NEZNÁMÝ', '', #248, #65 ) ;
#247 = AXIS2_PLACEMENT_3D ( 'NONE', #212, #36, #118 ) ;
#248 = PRODUCT_DEFINITION_FORMATION_WITH_SPECIFIED_SOURCE ( 'LIBOVOLNÝ', '', #64, .NOT_KNOWN. ) ;
#249 = APPLICATION_CONTEXT ( 'configuration controlled 3d designs of mechanical parts and assemblies' ) ;
#250 = CARTESIAN_POINT ( 'NONE',  ( -4.000000000000000000, 0.000000000000000000, 3.000000000000000000 ) ) ;
#251 = AXIS2_PLACEMENT_3D ( 'NONE', #238, #237, #210 ) ;
#252 = CARTESIAN_POINT ( 'NONE',  ( 0.000000000000000000, 0.000000000000000000, 100.0000000000000000 ) ) ;
#253 = VECTOR ( 'NONE', #145, 1000.000000000000000 ) ;
#254 = ORIENTED_EDGE ( 'NONE', *, *, #223, .F. ) ;
#255 = DIRECTION ( 'NONE',  ( -0.000000000000000000, -0.000000000000000000, -1.000000000000000000 ) ) ;
ENDSEC;
END-ISO-10303-21;
