ISO-10303-21;
HEADER;
FILE_DESCRIPTION (( 'STEP AP203' ),
    '1' );
FILE_NAME ('7d50.STEP',
    '2022-07-07T10:33:39',
    ( '' ),
    ( '' ),
    'SwSTEP 2.0',
    'SolidWorks 2019',
    '' );
FILE_SCHEMA (( 'CONFIG_CONTROL_DESIGN' ));
ENDSEC;

DATA;
#1 = CARTESIAN_POINT ( 'NONE',  ( 1.250000000000000000, 1.530808498934191571E-16, 102.0000000000000142 ) ) ;
#2 = CYLINDRICAL_SURFACE ( 'NONE', #10, 2.500000000000000000 ) ;
#3 = LOCAL_TIME ( 12, 33, 39.00000000000000000, #39 ) ;
#4 = DIRECTION ( 'NONE',  ( -0.000000000000000000, -0.000000000000000000, -1.000000000000000000 ) ) ;
#5 = DIRECTION ( 'NONE',  ( -0.000000000000000000, -0.000000000000000000, -1.000000000000000000 ) ) ;
#6 = DIRECTION ( 'NONE',  ( 1.000000000000000000, 0.000000000000000000, 0.000000000000000000 ) ) ;
#7 = EDGE_CURVE ( 'NONE', #279, #277, #78, .T. ) ;
#8 = AXIS2_PLACEMENT_3D ( 'NONE', #303, #191, #67 ) ;
#9 = LOCAL_TIME ( 12, 33, 39.00000000000000000, #298 ) ;
#10 = AXIS2_PLACEMENT_3D ( 'NONE', #220, #4, #122 ) ;
#11 = ADVANCED_FACE ( 'NONE', ( #160 ), #164, .F. ) ;
#12 = PERSON_AND_ORGANIZATION_ROLE ( 'design_owner' ) ;
#13 = ADVANCED_FACE ( 'NONE', ( #255 ), #208, .T. ) ;
#14 = AXIS2_PLACEMENT_3D ( 'NONE', #114, #273, #18 ) ;
#15 = PERSON_AND_ORGANIZATION ( #62, #92 ) ;
#16 = DIRECTION ( 'NONE',  ( -0.000000000000000000, -0.000000000000000000, -1.000000000000000000 ) ) ;
#17 = DATE_AND_TIME ( #213, #149 ) ;
#18 = DIRECTION ( 'NONE',  ( -1.000000000000000000, 0.000000000000000000, 0.000000000000000000 ) ) ;
#19 = PERSON_AND_ORGANIZATION ( #62, #92 ) ;
#20 = CARTESIAN_POINT ( 'NONE',  ( 1.250000000000000000, 1.530808498934191571E-16, 102.0000000000000142 ) ) ;
#21 = DATE_AND_TIME ( #237, #9 ) ;
#22 = CIRCLE ( 'NONE', #8, 1.250000000000000000 ) ;
#23 = DIRECTION ( 'NONE',  ( 0.000000000000000000, 0.000000000000000000, 1.000000000000000000 ) ) ;
#24 = APPROVAL_STATUS ( 'not_yet_approved' ) ;
#25 = DIRECTION ( 'NONE',  ( 1.000000000000000000, 0.000000000000000000, 0.000000000000000000 ) ) ;
#26 = CARTESIAN_POINT ( 'NONE',  ( 0.000000000000000000, 0.000000000000000000, 2.199999999999993516 ) ) ;
#27 = ADVANCED_FACE ( 'NONE', ( #238 ), #123, .F. ) ;
#28 = FACE_BOUND ( 'NONE', #79, .T. ) ;
#29 = CARTESIAN_POINT ( 'NONE',  ( 2.500000000000000000, 3.061616997868383141E-16, 0.000000000000000000 ) ) ;
#30 = LINE ( 'NONE', #1, #290 ) ;
#31 = AXIS2_PLACEMENT_3D ( 'NONE', #262, #120, #97 ) ;
#32 = CC_DESIGN_SECURITY_CLASSIFICATION ( #35, ( #69 ) ) ;
#33 = ORIENTED_EDGE ( 'NONE', *, *, #252, .T. ) ;
#34 = CIRCLE ( 'NONE', #73, 1.450000000000000178 ) ;
#35 = SECURITY_CLASSIFICATION ( '', '', #188 ) ;
#36 = VERTEX_POINT ( 'NONE', #158 ) ;
#37 = ORIENTED_EDGE ( 'NONE', *, *, #165, .F. ) ;
#38 = APPROVAL_PERSON_ORGANIZATION ( #15, #225, #206 ) ;
#39 = COORDINATED_UNIVERSAL_TIME_OFFSET ( 1, 0, .AHEAD. ) ;
#40 = ORIENTED_EDGE ( 'NONE', *, *, #47, .T. ) ;
#41 = DATE_AND_TIME ( #57, #169 ) ;
#42 = CARTESIAN_POINT ( 'NONE',  ( 0.000000000000000000, 0.000000000000000000, 2.000000000000000000 ) ) ;
#43 = APPROVAL_ROLE ( '' ) ;
#44 = CIRCLE ( 'NONE', #197, 2.500000000000000000 ) ;
#45 = CARTESIAN_POINT ( 'NONE',  ( 0.000000000000000000, 0.000000000000000000, 2.000000000000000000 ) ) ;
#46 = DIRECTION ( 'NONE',  ( 1.000000000000000000, 0.000000000000000000, -0.000000000000000000 ) ) ;
#47 = EDGE_CURVE ( 'NONE', #199, #144, #128, .T. ) ;
#48 = CARTESIAN_POINT ( 'NONE',  ( 0.000000000000000000, 0.000000000000000000, 0.000000000000000000 ) ) ;
#49 = DIRECTION ( 'NONE',  ( -0.000000000000000000, -0.000000000000000000, -1.000000000000000000 ) ) ;
#50 = DIRECTION ( 'NONE',  ( 1.000000000000000000, 0.000000000000000000, 0.000000000000000000 ) ) ;
#51 = FACE_OUTER_BOUND ( 'NONE', #153, .T. ) ;
#52 =( GEOMETRIC_REPRESENTATION_CONTEXT ( 3 ) GLOBAL_UNCERTAINTY_ASSIGNED_CONTEXT ( ( #163 ) ) GLOBAL_UNIT_ASSIGNED_CONTEXT ( ( #224, #204, #178 ) ) REPRESENTATION_CONTEXT ( 'NONE', 'WORKASPACE' ) );
#53 = ORIENTED_EDGE ( 'NONE', *, *, #121, .F. ) ;
#54 = VERTEX_POINT ( 'NONE', #20 ) ;
#55 = CIRCLE ( 'NONE', #296, 0.2000000000000000944 ) ;
#56 = CC_DESIGN_DATE_AND_TIME_ASSIGNMENT ( #21, #239, ( #35 ) ) ;
#57 = CALENDAR_DATE ( 2022, 7, 7 ) ;
#58 = DIRECTION ( 'NONE',  ( 1.000000000000000000, 0.000000000000000000, 0.000000000000000000 ) ) ;
#59 = ORIENTED_EDGE ( 'NONE', *, *, #121, .T. ) ;
#60 = AXIS2_PLACEMENT_3D ( 'NONE', #189, #259, #257 ) ;
#61 = DIRECTION ( 'NONE',  ( -1.000000000000000000, 0.000000000000000000, 0.000000000000000000 ) ) ;
#62 = PERSON ( 'NEURÈENÝ', 'NEURÈENÝ', 'NEURÈENÝ', ('NEURÈENÝ'), ('NEURÈENÝ'), ('NEURÈENÝ') ) ;
#63 = EDGE_CURVE ( 'NONE', #182, #36, #156, .T. ) ;
#64 = PERSON_AND_ORGANIZATION ( #62, #92 ) ;
#65 = DIRECTION ( 'NONE',  ( 0.000000000000000000, 0.000000000000000000, 1.000000000000000000 ) ) ;
#66 = DIRECTION ( 'NONE',  ( 0.000000000000000000, 0.000000000000000000, 1.000000000000000000 ) ) ;
#67 = DIRECTION ( 'NONE',  ( 1.000000000000000000, 0.000000000000000000, 0.000000000000000000 ) ) ;
#68 = AXIS2_PLACEMENT_3D ( 'NONE', #301, #253, #89 ) ;
#69 = PRODUCT_DEFINITION_FORMATION_WITH_SPECIFIED_SOURCE ( 'LIBOVOLNÝ', '', #226, .NOT_KNOWN. ) ;
#70 = LINE ( 'NONE', #170, #243 ) ;
#71 = CARTESIAN_POINT ( 'NONE',  ( -1.450000000000000178, 1.775737858763662409E-16, 1.999999999999996669 ) ) ;
#72 = PLANE ( 'NONE',  #168 ) ;
#73 = AXIS2_PLACEMENT_3D ( 'NONE', #42, #140, #6 ) ;
#74 = CARTESIAN_POINT ( 'NONE',  ( -1.450000000000000178, 1.775737858763662163E-16, 2.199999999999993516 ) ) ;
#75 = PRODUCT_RELATED_PRODUCT_CATEGORY ( 'detail', '', ( #226 ) ) ;
#76 = LINE ( 'NONE', #198, #118 ) ;
#77 = EDGE_CURVE ( 'NONE', #249, #54, #22, .T. ) ;
#78 = CIRCLE ( 'NONE', #223, 2.500000000000000000 ) ;
#79 = EDGE_LOOP ( 'NONE', ( #307, #40 ) ) ;
#80 = EDGE_LOOP ( 'NONE', ( #236, #101, #167, #205 ) ) ;
#81 = AXIS2_PLACEMENT_3D ( 'NONE', #233, #23, #217 ) ;
#82 = PERSON_AND_ORGANIZATION ( #62, #92 ) ;
#83 = EDGE_LOOP ( 'NONE', ( #125, #240, #209, #139 ) ) ;
#84 = ORIENTED_EDGE ( 'NONE', *, *, #77, .F. ) ;
#85 = ADVANCED_FACE ( 'NONE', ( #88 ), #135, .T. ) ;
#86 = CARTESIAN_POINT ( 'NONE',  ( 0.000000000000000000, 0.000000000000000000, 2.199999999999993516 ) ) ;
#87 = PERSON_AND_ORGANIZATION_ROLE ( 'design_supplier' ) ;
#88 = FACE_OUTER_BOUND ( 'NONE', #202, .T. ) ;
#89 = DIRECTION ( 'NONE',  ( 1.000000000000000000, 0.000000000000000000, 0.000000000000000000 ) ) ;
#90 = EDGE_CURVE ( 'NONE', #36, #182, #173, .T. ) ;
#91 = CARTESIAN_POINT ( 'NONE',  ( 0.000000000000000000, 0.000000000000000000, 102.0000000000000142 ) ) ;
#92 = ORGANIZATION ( 'NEURÈENÝ', 'NEURÈENÝ', '' ) ;
#93 = DIRECTION ( 'NONE',  ( 0.000000000000000000, 0.000000000000000000, 1.000000000000000000 ) ) ;
#94 = DIRECTION ( 'NONE',  ( 0.000000000000000000, -1.000000000000000000, 0.000000000000000000 ) ) ;
#95 = CARTESIAN_POINT ( 'NONE',  ( -2.500000000000000000, 0.000000000000000000, 2.000000000000000000 ) ) ;
#96 = CC_DESIGN_PERSON_AND_ORGANIZATION_ASSIGNMENT ( #138, #134, ( #154 ) ) ;
#97 = DIRECTION ( 'NONE',  ( 1.000000000000000000, 0.000000000000000000, 0.000000000000000000 ) ) ;
#98 = CC_DESIGN_APPROVAL ( #288, ( #35 ) ) ;
#99 = APPLICATION_CONTEXT ( 'configuration controlled 3d designs of mechanical parts and assemblies' ) ;
#100 = EDGE_CURVE ( 'NONE', #292, #129, #200, .T. ) ;
#101 = ORIENTED_EDGE ( 'NONE', *, *, #252, .F. ) ;
#102 = TOROIDAL_SURFACE ( 'NONE', #105, 1.450000000000000178, 0.2000000000000000111 ) ;
#103 = EDGE_LOOP ( 'NONE', ( #33, #291 ) ) ;
#104 = COORDINATED_UNIVERSAL_TIME_OFFSET ( 1, 0, .AHEAD. ) ;
#105 = AXIS2_PLACEMENT_3D ( 'NONE', #26, #117, #50 ) ;
#106 = ORIENTED_EDGE ( 'NONE', *, *, #115, .T. ) ;
#107 = EDGE_CURVE ( 'NONE', #144, #199, #34, .T. ) ;
#108 = CALENDAR_DATE ( 2022, 7, 7 ) ;
#109 = CARTESIAN_POINT ( 'NONE',  ( 0.000000000000000000, 0.000000000000000000, 2.199999999999993516 ) ) ;
#110 = APPROVAL_STATUS ( 'not_yet_approved' ) ;
#111 = ORIENTED_EDGE ( 'NONE', *, *, #179, .F. ) ;
#112 = AXIS2_PLACEMENT_3D ( 'NONE', #286, #94, #247 ) ;
#113 = DATE_TIME_ROLE ( 'creation_date' ) ;
#114 = CARTESIAN_POINT ( 'NONE',  ( 0.000000000000000000, 0.000000000000000000, 2.000000000000000000 ) ) ;
#115 = EDGE_CURVE ( 'NONE', #54, #182, #30, .T. ) ;
#116 = FACE_OUTER_BOUND ( 'NONE', #142, .T. ) ;
#117 = DIRECTION ( 'NONE',  ( 0.000000000000000000, 0.000000000000000000, 1.000000000000000000 ) ) ;
#118 = VECTOR ( 'NONE', #172, 1000.000000000000000 ) ;
#119 = APPROVAL_PERSON_ORGANIZATION ( #260, #288, #43 ) ;
#120 = DIRECTION ( 'NONE',  ( 0.000000000000000000, 0.000000000000000000, 1.000000000000000000 ) ) ;
#121 = EDGE_CURVE ( 'NONE', #54, #249, #207, .T. ) ;
#122 = DIRECTION ( 'NONE',  ( -1.000000000000000000, 0.000000000000000000, 0.000000000000000000 ) ) ;
#123 = TOROIDAL_SURFACE ( 'NONE', #124, 1.450000000000000178, 0.2000000000000000111 ) ;
#124 = AXIS2_PLACEMENT_3D ( 'NONE', #109, #299, #58 ) ;
#125 = ORIENTED_EDGE ( 'NONE', *, *, #7, .F. ) ;
#126 = APPLICATION_PROTOCOL_DEFINITION ( 'international standard', 'config_control_design', 1994, #203 ) ;
#127 = ORIENTED_EDGE ( 'NONE', *, *, #165, .T. ) ;
#128 = CIRCLE ( 'NONE', #148, 1.450000000000000178 ) ;
#129 = VERTEX_POINT ( 'NONE', #29 ) ;
#130 = CC_DESIGN_PERSON_AND_ORGANIZATION_ASSIGNMENT ( #64, #228, ( #35 ) ) ;
#131 = ORIENTED_EDGE ( 'NONE', *, *, #234, .F. ) ;
#132 = APPROVAL_STATUS ( 'not_yet_approved' ) ;
#133 = ORIENTED_EDGE ( 'NONE', *, *, #300, .T. ) ;
#134 = PERSON_AND_ORGANIZATION_ROLE ( 'creator' ) ;
#135 = CYLINDRICAL_SURFACE ( 'NONE', #136, 1.250000000000000000 ) ;
#136 = AXIS2_PLACEMENT_3D ( 'NONE', #231, #16, #61 ) ;
#137 = ADVANCED_FACE ( 'NONE', ( #28, #192 ), #285, .T. ) ;
#138 = PERSON_AND_ORGANIZATION ( #62, #92 ) ;
#139 = ORIENTED_EDGE ( 'NONE', *, *, #227, .F. ) ;
#140 = DIRECTION ( 'NONE',  ( -0.000000000000000000, -0.000000000000000000, -1.000000000000000000 ) ) ;
#141 = APPROVAL_DATE_TIME ( #17, #248 ) ;
#142 = EDGE_LOOP ( 'NONE', ( #268, #59 ) ) ;
#143 = COORDINATED_UNIVERSAL_TIME_OFFSET ( 1, 0, .AHEAD. ) ;
#144 = VERTEX_POINT ( 'NONE', #171 ) ;
#145 = DIRECTION ( 'NONE',  ( 0.000000000000000000, 0.000000000000000000, 1.000000000000000000 ) ) ;
#146 = DIRECTION ( 'NONE',  ( 1.224646799147353207E-16, 1.000000000000000000, -0.000000000000000000 ) ) ;
#147 = EDGE_CURVE ( 'NONE', #279, #129, #76, .T. ) ;
#148 = AXIS2_PLACEMENT_3D ( 'NONE', #215, #211, #305 ) ;
#149 = LOCAL_TIME ( 12, 33, 39.00000000000000000, #210 ) ;
#150 = DIRECTION ( 'NONE',  ( 1.000000000000000000, 0.000000000000000000, 0.000000000000000000 ) ) ;
#151 = DIRECTION ( 'NONE',  ( 0.000000000000000000, 0.000000000000000000, 1.000000000000000000 ) ) ;
#152 = CC_DESIGN_APPROVAL ( #248, ( #69 ) ) ;
#153 = EDGE_LOOP ( 'NONE', ( #53, #106, #271, #229 ) ) ;
#154 = PRODUCT_DEFINITION ( 'NEZNÁMÝ', '', #69, #212 ) ;
#155 = SHAPE_DEFINITION_REPRESENTATION ( #258, #159 ) ;
#156 = CIRCLE ( 'NONE', #68, 1.250000000000000000 ) ;
#157 = ADVANCED_FACE ( 'NONE', ( #51 ), #287, .T. ) ;
#158 = CARTESIAN_POINT ( 'NONE',  ( -1.250000000000000000, 0.000000000000000000, 2.199999999999993516 ) ) ;
#159 = ADVANCED_BREP_SHAPE_REPRESENTATION ( '7d50', ( #280, #230 ), #52 ) ;
#160 = FACE_OUTER_BOUND ( 'NONE', #270, .T. ) ;
#161 = AXIS2_PLACEMENT_3D ( 'NONE', #86, #186, #162 ) ;
#162 = DIRECTION ( 'NONE',  ( 1.000000000000000000, 0.000000000000000000, 0.000000000000000000 ) ) ;
#163 = UNCERTAINTY_MEASURE_WITH_UNIT (LENGTH_MEASURE( 1.000000000000000082E-05 ), #224, 'distance_accuracy_value', 'NONE');
#164 = PLANE ( 'NONE',  #81 ) ;
#165 = EDGE_CURVE ( 'NONE', #182, #144, #276, .T. ) ;
#166 = CALENDAR_DATE ( 2022, 7, 7 ) ;
#167 = ORIENTED_EDGE ( 'NONE', *, *, #227, .T. ) ;
#168 = AXIS2_PLACEMENT_3D ( 'NONE', #222, #145, #175 ) ;
#169 = LOCAL_TIME ( 12, 33, 39.00000000000000000, #104 ) ;
#170 = CARTESIAN_POINT ( 'NONE',  ( -2.500000000000000000, 0.000000000000000000, 2.000000000000000000 ) ) ;
#171 = CARTESIAN_POINT ( 'NONE',  ( 1.450000000000000178, 0.000000000000000000, 1.999999999999996669 ) ) ;
#172 = DIRECTION ( 'NONE',  ( -0.000000000000000000, -0.000000000000000000, -1.000000000000000000 ) ) ;
#173 = CIRCLE ( 'NONE', #161, 1.250000000000000000 ) ;
#174 = CC_DESIGN_APPROVAL ( #225, ( #154 ) ) ;
#175 = DIRECTION ( 'NONE',  ( 1.000000000000000000, 0.000000000000000000, -0.000000000000000000 ) ) ;
#176 = ADVANCED_FACE ( 'NONE', ( #116 ), #72, .T. ) ;
#177 = DIRECTION ( 'NONE',  ( -1.000000000000000000, 0.000000000000000000, 0.000000000000000000 ) ) ;
#178 =( NAMED_UNIT ( * ) SI_UNIT ( $, .STERADIAN. ) SOLID_ANGLE_UNIT ( ) );
#179 = EDGE_CURVE ( 'NONE', #129, #292, #44, .T. ) ;
#180 = ORIENTED_EDGE ( 'NONE', *, *, #115, .F. ) ;
#181 = APPROVAL_DATE_TIME ( #294, #288 ) ;
#182 = VERTEX_POINT ( 'NONE', #283 ) ;
#183 = ORIENTED_EDGE ( 'NONE', *, *, #47, .F. ) ;
#184 = ORIENTED_EDGE ( 'NONE', *, *, #107, .F. ) ;
#185 = PERSON_AND_ORGANIZATION_ROLE ( 'creator' ) ;
#186 = DIRECTION ( 'NONE',  ( 0.000000000000000000, 0.000000000000000000, 1.000000000000000000 ) ) ;
#187 = LOCAL_TIME ( 12, 33, 39.00000000000000000, #143 ) ;
#188 = SECURITY_CLASSIFICATION_LEVEL ( 'unclassified' ) ;
#189 = CARTESIAN_POINT ( 'NONE',  ( 0.000000000000000000, 0.000000000000000000, 0.000000000000000000 ) ) ;
#190 = CC_DESIGN_PERSON_AND_ORGANIZATION_ASSIGNMENT ( #302, #185, ( #69 ) ) ;
#191 = DIRECTION ( 'NONE',  ( 0.000000000000000000, 0.000000000000000000, 1.000000000000000000 ) ) ;
#192 = FACE_OUTER_BOUND ( 'NONE', #103, .T. ) ;
#193 = VECTOR ( 'NONE', #5, 1000.000000000000000 ) ;
#194 = CARTESIAN_POINT ( 'NONE',  ( 2.500000000000000000, 3.061616997868383141E-16, 2.000000000000000000 ) ) ;
#195 = LINE ( 'NONE', #221, #193 ) ;
#196 = DIRECTION ( 'NONE',  ( 0.000000000000000000, 0.000000000000000000, 1.000000000000000000 ) ) ;
#197 = AXIS2_PLACEMENT_3D ( 'NONE', #48, #196, #241 ) ;
#198 = CARTESIAN_POINT ( 'NONE',  ( 2.500000000000000000, 3.061616997868383141E-16, 2.000000000000000000 ) ) ;
#199 = VERTEX_POINT ( 'NONE', #71 ) ;
#200 = CIRCLE ( 'NONE', #60, 2.500000000000000000 ) ;
#201 = ORIENTED_EDGE ( 'NONE', *, *, #100, .F. ) ;
#202 = EDGE_LOOP ( 'NONE', ( #180, #84, #133, #261 ) ) ;
#203 = APPLICATION_CONTEXT ( 'configuration controlled 3d designs of mechanical parts and assemblies' ) ;
#204 =( NAMED_UNIT ( * ) PLANE_ANGLE_UNIT ( ) SI_UNIT ( $, .RADIAN. ) );
#205 = ORIENTED_EDGE ( 'NONE', *, *, #100, .T. ) ;
#206 = APPROVAL_ROLE ( '' ) ;
#207 = CIRCLE ( 'NONE', #250, 1.250000000000000000 ) ;
#208 = CYLINDRICAL_SURFACE ( 'NONE', #14, 2.500000000000000000 ) ;
#209 = ORIENTED_EDGE ( 'NONE', *, *, #179, .T. ) ;
#210 = COORDINATED_UNIVERSAL_TIME_OFFSET ( 1, 0, .AHEAD. ) ;
#211 = DIRECTION ( 'NONE',  ( -0.000000000000000000, -0.000000000000000000, -1.000000000000000000 ) ) ;
#212 = DESIGN_CONTEXT ( 'detailed design', #99, 'design' ) ;
#213 = CALENDAR_DATE ( 2022, 7, 7 ) ;
#214 = CC_DESIGN_PERSON_AND_ORGANIZATION_ASSIGNMENT ( #82, #12, ( #226 ) ) ;
#215 = CARTESIAN_POINT ( 'NONE',  ( 0.000000000000000000, 0.000000000000000000, 2.000000000000000000 ) ) ;
#216 = AXIS2_PLACEMENT_3D ( 'NONE', #284, #49, #177 ) ;
#217 = DIRECTION ( 'NONE',  ( 1.000000000000000000, 0.000000000000000000, -0.000000000000000000 ) ) ;
#218 = DIRECTION ( 'NONE',  ( -0.000000000000000000, -0.000000000000000000, -1.000000000000000000 ) ) ;
#219 = CARTESIAN_POINT ( 'NONE',  ( -2.500000000000000000, 0.000000000000000000, 0.000000000000000000 ) ) ;
#220 = CARTESIAN_POINT ( 'NONE',  ( 0.000000000000000000, 0.000000000000000000, 2.000000000000000000 ) ) ;
#221 = CARTESIAN_POINT ( 'NONE',  ( -1.250000000000000000, 0.000000000000000000, 102.0000000000000142 ) ) ;
#222 = CARTESIAN_POINT ( 'NONE',  ( 0.000000000000000000, 0.000000000000000000, 102.0000000000000142 ) ) ;
#223 = AXIS2_PLACEMENT_3D ( 'NONE', #45, #65, #25 ) ;
#224 =( LENGTH_UNIT ( ) NAMED_UNIT ( * ) SI_UNIT ( .MILLI., .METRE. ) );
#225 = APPROVAL ( #132, 'NEURÈENÝ' ) ;
#226 = PRODUCT ( '7d50', '7d50', '', ( #278 ) ) ;
#227 = EDGE_CURVE ( 'NONE', #277, #292, #70, .T. ) ;
#228 = PERSON_AND_ORGANIZATION_ROLE ( 'classification_officer' ) ;
#229 = ORIENTED_EDGE ( 'NONE', *, *, #300, .F. ) ;
#230 = AXIS2_PLACEMENT_3D ( 'NONE', #256, #66, #306 ) ;
#231 = CARTESIAN_POINT ( 'NONE',  ( 0.000000000000000000, 0.000000000000000000, 102.0000000000000142 ) ) ;
#232 = APPROVAL_ROLE ( '' ) ;
#233 = CARTESIAN_POINT ( 'NONE',  ( 0.000000000000000000, 0.000000000000000000, 0.000000000000000000 ) ) ;
#234 = EDGE_CURVE ( 'NONE', #36, #199, #55, .T. ) ;
#235 = APPROVAL_DATE_TIME ( #281, #225 ) ;
#236 = ORIENTED_EDGE ( 'NONE', *, *, #147, .F. ) ;
#237 = CALENDAR_DATE ( 2022, 7, 7 ) ;
#238 = FACE_OUTER_BOUND ( 'NONE', #275, .T. ) ;
#239 = DATE_TIME_ROLE ( 'classification_date' ) ;
#240 = ORIENTED_EDGE ( 'NONE', *, *, #147, .T. ) ;
#241 = DIRECTION ( 'NONE',  ( 1.000000000000000000, 0.000000000000000000, 0.000000000000000000 ) ) ;
#242 = CARTESIAN_POINT ( 'NONE',  ( -1.250000000000000000, 0.000000000000000000, 102.0000000000000142 ) ) ;
#243 = VECTOR ( 'NONE', #244, 1000.000000000000000 ) ;
#244 = DIRECTION ( 'NONE',  ( -0.000000000000000000, -0.000000000000000000, -1.000000000000000000 ) ) ;
#245 = CC_DESIGN_DATE_AND_TIME_ASSIGNMENT ( #41, #113, ( #154 ) ) ;
#246 = DIRECTION ( 'NONE',  ( -1.000000000000000000, 1.224646799147353207E-16, 0.000000000000000000 ) ) ;
#247 = DIRECTION ( 'NONE',  ( 0.000000000000000000, 0.000000000000000000, -1.000000000000000000 ) ) ;
#248 = APPROVAL ( #110, 'NEURÈENÝ' ) ;
#249 = VERTEX_POINT ( 'NONE', #242 ) ;
#250 = AXIS2_PLACEMENT_3D ( 'NONE', #91, #151, #150 ) ;
#251 = EDGE_LOOP ( 'NONE', ( #282, #295, #184, #37 ) ) ;
#252 = EDGE_CURVE ( 'NONE', #277, #279, #297, .T. ) ;
#253 = DIRECTION ( 'NONE',  ( 0.000000000000000000, 0.000000000000000000, 1.000000000000000000 ) ) ;
#254 = AXIS2_PLACEMENT_3D ( 'NONE', #267, #93, #46 ) ;
#255 = FACE_OUTER_BOUND ( 'NONE', #80, .T. ) ;
#256 = CARTESIAN_POINT ( 'NONE',  ( 0.000000000000000000, 0.000000000000000000, 0.000000000000000000 ) ) ;
#257 = DIRECTION ( 'NONE',  ( 1.000000000000000000, 0.000000000000000000, 0.000000000000000000 ) ) ;
#258 = PRODUCT_DEFINITION_SHAPE ( 'NONE', 'NONE',  #154 ) ;
#259 = DIRECTION ( 'NONE',  ( 0.000000000000000000, 0.000000000000000000, 1.000000000000000000 ) ) ;
#260 = PERSON_AND_ORGANIZATION ( #62, #92 ) ;
#261 = ORIENTED_EDGE ( 'NONE', *, *, #90, .T. ) ;
#262 = CARTESIAN_POINT ( 'NONE',  ( 0.000000000000000000, 0.000000000000000000, 2.000000000000000000 ) ) ;
#263 = FACE_OUTER_BOUND ( 'NONE', #83, .T. ) ;
#264 = CLOSED_SHELL ( 'NONE', ( #265, #157, #293, #13, #137, #11, #85, #176, #27 ) ) ;
#265 = ADVANCED_FACE ( 'NONE', ( #266 ), #102, .F. ) ;
#266 = FACE_OUTER_BOUND ( 'NONE', #251, .T. ) ;
#267 = CARTESIAN_POINT ( 'NONE',  ( 0.000000000000000000, 0.000000000000000000, 2.000000000000000000 ) ) ;
#268 = ORIENTED_EDGE ( 'NONE', *, *, #77, .T. ) ;
#269 = APPROVAL_PERSON_ORGANIZATION ( #19, #248, #232 ) ;
#270 = EDGE_LOOP ( 'NONE', ( #201, #111 ) ) ;
#271 = ORIENTED_EDGE ( 'NONE', *, *, #63, .T. ) ;
#272 = APPLICATION_PROTOCOL_DEFINITION ( 'international standard', 'config_control_design', 1994, #99 ) ;
#273 = DIRECTION ( 'NONE',  ( -0.000000000000000000, -0.000000000000000000, -1.000000000000000000 ) ) ;
#274 = CC_DESIGN_PERSON_AND_ORGANIZATION_ASSIGNMENT ( #304, #87, ( #69 ) ) ;
#275 = EDGE_LOOP ( 'NONE', ( #131, #289, #127, #183 ) ) ;
#276 = CIRCLE ( 'NONE', #112, 0.2000000000000000944 ) ;
#277 = VERTEX_POINT ( 'NONE', #95 ) ;
#278 = MECHANICAL_CONTEXT ( 'NONE', #203, 'mechanical' ) ;
#279 = VERTEX_POINT ( 'NONE', #194 ) ;
#280 = MANIFOLD_SOLID_BREP ( 'Zaoblit1', #264 ) ;
#281 = DATE_AND_TIME ( #108, #3 ) ;
#282 = ORIENTED_EDGE ( 'NONE', *, *, #90, .F. ) ;
#283 = CARTESIAN_POINT ( 'NONE',  ( 1.250000000000000000, 1.530808498934191571E-16, 2.199999999999993516 ) ) ;
#284 = CARTESIAN_POINT ( 'NONE',  ( 0.000000000000000000, 0.000000000000000000, 102.0000000000000142 ) ) ;
#285 = PLANE ( 'NONE',  #254 ) ;
#286 = CARTESIAN_POINT ( 'NONE',  ( 1.450000000000000178, 0.000000000000000000, 2.199999999999993516 ) ) ;
#287 = CYLINDRICAL_SURFACE ( 'NONE', #216, 1.250000000000000000 ) ;
#288 = APPROVAL ( #24, 'NEURÈENÝ' ) ;
#289 = ORIENTED_EDGE ( 'NONE', *, *, #63, .F. ) ;
#290 = VECTOR ( 'NONE', #218, 1000.000000000000000 ) ;
#291 = ORIENTED_EDGE ( 'NONE', *, *, #7, .T. ) ;
#292 = VERTEX_POINT ( 'NONE', #219 ) ;
#293 = ADVANCED_FACE ( 'NONE', ( #263 ), #2, .T. ) ;
#294 = DATE_AND_TIME ( #166, #187 ) ;
#295 = ORIENTED_EDGE ( 'NONE', *, *, #234, .T. ) ;
#296 = AXIS2_PLACEMENT_3D ( 'NONE', #74, #146, #246 ) ;
#297 = CIRCLE ( 'NONE', #31, 2.500000000000000000 ) ;
#298 = COORDINATED_UNIVERSAL_TIME_OFFSET ( 1, 0, .AHEAD. ) ;
#299 = DIRECTION ( 'NONE',  ( 0.000000000000000000, 0.000000000000000000, 1.000000000000000000 ) ) ;
#300 = EDGE_CURVE ( 'NONE', #249, #36, #195, .T. ) ;
#301 = CARTESIAN_POINT ( 'NONE',  ( 0.000000000000000000, 0.000000000000000000, 2.199999999999993516 ) ) ;
#302 = PERSON_AND_ORGANIZATION ( #62, #92 ) ;
#303 = CARTESIAN_POINT ( 'NONE',  ( 0.000000000000000000, 0.000000000000000000, 102.0000000000000142 ) ) ;
#304 = PERSON_AND_ORGANIZATION ( #62, #92 ) ;
#305 = DIRECTION ( 'NONE',  ( 1.000000000000000000, 0.000000000000000000, 0.000000000000000000 ) ) ;
#306 = DIRECTION ( 'NONE',  ( 1.000000000000000000, 0.000000000000000000, 0.000000000000000000 ) ) ;
#307 = ORIENTED_EDGE ( 'NONE', *, *, #107, .T. ) ;
ENDSEC;
END-ISO-10303-21;
