ISO-10303-21;
HEADER;
FILE_DESCRIPTION (( 'STEP AP203' ),
    '1' );
FILE_NAME ('2529.STEP',
    '2022-07-07T10:40:15',
    ( '' ),
    ( '' ),
    'SwSTEP 2.0',
    'SolidWorks 2019',
    '' );
FILE_SCHEMA (( 'CONFIG_CONTROL_DESIGN' ));
ENDSEC;

DATA;
#1 = ADVANCED_FACE ( 'NONE', ( #127, #20 ), #154, .T. ) ;
#2 = CYLINDRICAL_SURFACE ( 'NONE', #283, 0.6500000000000000222 ) ;
#3 = CYLINDRICAL_SURFACE ( 'NONE', #196, 1.500000000000000222 ) ;
#4 = AXIS2_PLACEMENT_3D ( 'NONE', #134, #304, #163 ) ;
#5 = PRODUCT_DEFINITION_SHAPE ( 'NONE', 'NONE',  #78 ) ;
#6 = EDGE_CURVE ( 'NONE', #162, #257, #219, .T. ) ;
#7 =( NAMED_UNIT ( * ) SI_UNIT ( $, .STERADIAN. ) SOLID_ANGLE_UNIT ( ) );
#8 = APPLICATION_PROTOCOL_DEFINITION ( 'international standard', 'config_control_design', 1994, #144 ) ;
#9 = APPROVAL_STATUS ( 'not_yet_approved' ) ;
#10 = EDGE_CURVE ( 'NONE', #156, #133, #265, .T. ) ;
#11 = DIRECTION ( 'NONE',  ( -0.000000000000000000, -0.000000000000000000, -1.000000000000000000 ) ) ;
#12 = DIRECTION ( 'NONE',  ( -0.000000000000000000, -0.000000000000000000, -1.000000000000000000 ) ) ;
#13 = CARTESIAN_POINT ( 'NONE',  ( 0.000000000000000000, 0.000000000000000000, 101.5000000000000000 ) ) ;
#14 = CARTESIAN_POINT ( 'NONE',  ( 1.500000000000000222, 1.836970198721030181E-16, 0.000000000000000000 ) ) ;
#15 = ORIENTED_EDGE ( 'NONE', *, *, #55, .T. ) ;
#16 = DIRECTION ( 'NONE',  ( 0.000000000000000000, 0.000000000000000000, -1.000000000000000000 ) ) ;
#17 = VECTOR ( 'NONE', #89, 1000.000000000000000 ) ;
#18 = ORIENTED_EDGE ( 'NONE', *, *, #269, .F. ) ;
#19 = DIRECTION ( 'NONE',  ( -0.000000000000000000, -0.000000000000000000, -1.000000000000000000 ) ) ;
#20 = FACE_OUTER_BOUND ( 'NONE', #299, .T. ) ;
#21 = EDGE_CURVE ( 'NONE', #161, #231, #259, .T. ) ;
#22 = DIRECTION ( 'NONE',  ( 0.000000000000000000, 0.000000000000000000, 1.000000000000000000 ) ) ;
#23 = FACE_OUTER_BOUND ( 'NONE', #46, .T. ) ;
#24 = AXIS2_PLACEMENT_3D ( 'NONE', #207, #288, #76 ) ;
#25 = EDGE_CURVE ( 'NONE', #231, #257, #290, .T. ) ;
#26 = COORDINATED_UNIVERSAL_TIME_OFFSET ( 1, 0, .AHEAD. ) ;
#27 = PERSON_AND_ORGANIZATION ( #102, #180 ) ;
#28 = EDGE_CURVE ( 'NONE', #133, #231, #185, .T. ) ;
#29 = AXIS2_PLACEMENT_3D ( 'NONE', #94, #212, #164 ) ;
#30 = DATE_AND_TIME ( #86, #289 ) ;
#31 = AXIS2_PLACEMENT_3D ( 'NONE', #224, #234, #302 ) ;
#32 = CARTESIAN_POINT ( 'NONE',  ( 0.000000000000000000, 0.000000000000000000, 1.700000000000007061 ) ) ;
#33 = DATE_TIME_ROLE ( 'creation_date' ) ;
#34 = CC_DESIGN_DATE_AND_TIME_ASSIGNMENT ( #218, #120, ( #115 ) ) ;
#35 = VECTOR ( 'NONE', #51, 1000.000000000000000 ) ;
#36 = ORIENTED_EDGE ( 'NONE', *, *, #214, .T. ) ;
#37 = PERSON_AND_ORGANIZATION ( #102, #180 ) ;
#38 = DESIGN_CONTEXT ( 'detailed design', #80, 'design' ) ;
#39 = DIRECTION ( 'NONE',  ( 0.000000000000000000, 0.000000000000000000, 1.000000000000000000 ) ) ;
#40 = ORIENTED_EDGE ( 'NONE', *, *, #292, .F. ) ;
#41 = CC_DESIGN_PERSON_AND_ORGANIZATION_ASSIGNMENT ( #179, #150, ( #100 ) ) ;
#42 = DIRECTION ( 'NONE',  ( 1.000000000000000000, 0.000000000000000000, 0.000000000000000000 ) ) ;
#43 = AXIS2_PLACEMENT_3D ( 'NONE', #114, #45, #251 ) ;
#44 = VERTEX_POINT ( 'NONE', #276 ) ;
#45 = DIRECTION ( 'NONE',  ( 0.000000000000000000, 0.000000000000000000, 1.000000000000000000 ) ) ;
#46 = EDGE_LOOP ( 'NONE', ( #131, #47, #225, #40 ) ) ;
#47 = ORIENTED_EDGE ( 'NONE', *, *, #21, .F. ) ;
#48 = FACE_OUTER_BOUND ( 'NONE', #61, .T. ) ;
#49 = ORIENTED_EDGE ( 'NONE', *, *, #64, .T. ) ;
#50 = CARTESIAN_POINT ( 'NONE',  ( 0.6500000000000000222, 7.960204194457795477E-17, 101.5000000000000000 ) ) ;
#51 = DIRECTION ( 'NONE',  ( -0.000000000000000000, -0.000000000000000000, -1.000000000000000000 ) ) ;
#52 = MANIFOLD_SOLID_BREP ( 'Zaoblit1', #198 ) ;
#53 = ADVANCED_BREP_SHAPE_REPRESENTATION ( '2529', ( #52, #84 ), #153 ) ;
#54 = APPROVAL_ROLE ( '' ) ;
#55 = EDGE_CURVE ( 'NONE', #44, #69, #58, .T. ) ;
#56 = PERSON_AND_ORGANIZATION ( #102, #180 ) ;
#57 = MECHANICAL_CONTEXT ( 'NONE', #144, 'mechanical' ) ;
#58 = CIRCLE ( 'NONE', #233, 1.500000000000000222 ) ;
#59 = COORDINATED_UNIVERSAL_TIME_OFFSET ( 1, 0, .AHEAD. ) ;
#60 = AXIS2_PLACEMENT_3D ( 'NONE', #73, #96, #258 ) ;
#61 = EDGE_LOOP ( 'NONE', ( #201, #183, #88, #113 ) ) ;
#62 = CARTESIAN_POINT ( 'NONE',  ( -0.6500000000000000222, 0.000000000000000000, 101.5000000000000000 ) ) ;
#63 = UNCERTAINTY_MEASURE_WITH_UNIT (LENGTH_MEASURE( 1.000000000000000082E-05 ), #273, 'distance_accuracy_value', 'NONE');
#64 = EDGE_CURVE ( 'NONE', #156, #161, #226, .T. ) ;
#65 = CARTESIAN_POINT ( 'NONE',  ( 0.000000000000000000, 0.000000000000000000, 0.000000000000000000 ) ) ;
#66 = ORIENTED_EDGE ( 'NONE', *, *, #292, .T. ) ;
#67 = CARTESIAN_POINT ( 'NONE',  ( 0.000000000000000000, 0.000000000000000000, 1.500000000000000000 ) ) ;
#68 = EDGE_LOOP ( 'NONE', ( #18, #246, #209, #15 ) ) ;
#69 = VERTEX_POINT ( 'NONE', #14 ) ;
#70 = AXIS2_PLACEMENT_3D ( 'NONE', #152, #12, #200 ) ;
#71 = PLANE ( 'NONE',  #174 ) ;
#72 = CARTESIAN_POINT ( 'NONE',  ( 0.6500000000000000222, 7.960204194457795477E-17, 101.5000000000000000 ) ) ;
#73 = CARTESIAN_POINT ( 'NONE',  ( 0.000000000000000000, 0.000000000000000000, 1.700000000000007061 ) ) ;
#74 = EDGE_CURVE ( 'NONE', #228, #279, #139, .T. ) ;
#75 = CARTESIAN_POINT ( 'NONE',  ( 1.500000000000000222, 1.836970198721030181E-16, 1.500000000000000000 ) ) ;
#76 = DIRECTION ( 'NONE',  ( 1.000000000000000000, 0.000000000000000000, -0.000000000000000000 ) ) ;
#77 = PERSON_AND_ORGANIZATION_ROLE ( 'creator' ) ;
#78 = PRODUCT_DEFINITION ( 'NEZNÁMÝ', '', #79, #38 ) ;
#79 = PRODUCT_DEFINITION_FORMATION_WITH_SPECIFIED_SOURCE ( 'LIBOVOLNÝ', '', #100, .NOT_KNOWN. ) ;
#80 = APPLICATION_CONTEXT ( 'configuration controlled 3d designs of mechanical parts and assemblies' ) ;
#81 = DATE_AND_TIME ( #151, #227 ) ;
#82 = SECURITY_CLASSIFICATION_LEVEL ( 'unclassified' ) ;
#83 = LOCAL_TIME ( 12, 40, 15.00000000000000000, #26 ) ;
#84 = AXIS2_PLACEMENT_3D ( 'NONE', #123, #220, #197 ) ;
#85 = DIRECTION ( 'NONE',  ( 1.000000000000000000, 0.000000000000000000, 0.000000000000000000 ) ) ;
#86 = CALENDAR_DATE ( 2022, 7, 7 ) ;
#87 = DIRECTION ( 'NONE',  ( -1.000000000000000000, 0.000000000000000000, 0.000000000000000000 ) ) ;
#88 = ORIENTED_EDGE ( 'NONE', *, *, #261, .T. ) ;
#89 = DIRECTION ( 'NONE',  ( -0.000000000000000000, -0.000000000000000000, -1.000000000000000000 ) ) ;
#90 = DIRECTION ( 'NONE',  ( 0.000000000000000000, 0.000000000000000000, 1.000000000000000000 ) ) ;
#91 = CARTESIAN_POINT ( 'NONE',  ( 0.8499999999999999778, 0.000000000000000000, 1.500000000000003553 ) ) ;
#92 = DIRECTION ( 'NONE',  ( 0.000000000000000000, 0.000000000000000000, 1.000000000000000000 ) ) ;
#93 = EDGE_CURVE ( 'NONE', #161, #162, #217, .T. ) ;
#94 = CARTESIAN_POINT ( 'NONE',  ( 0.000000000000000000, 0.000000000000000000, 1.500000000000000000 ) ) ;
#95 = LINE ( 'NONE', #262, #142 ) ;
#96 = DIRECTION ( 'NONE',  ( 0.000000000000000000, 0.000000000000000000, 1.000000000000000000 ) ) ;
#97 = ADVANCED_FACE ( 'NONE', ( #104 ), #208, .T. ) ;
#98 = CIRCLE ( 'NONE', #4, 0.6500000000000000222 ) ;
#99 = TOROIDAL_SURFACE ( 'NONE', #264, 0.8499999999999999778, 0.2000000000000000111 ) ;
#100 = PRODUCT ( '2529', '2529', '', ( #57 ) ) ;
#101 = VECTOR ( 'NONE', #11, 1000.000000000000000 ) ;
#102 = PERSON ( 'NEURÈENÝ', 'NEURÈENÝ', 'NEURÈENÝ', ('NEURÈENÝ'), ('NEURÈENÝ'), ('NEURÈENÝ') ) ;
#103 = APPROVAL_ROLE ( '' ) ;
#104 = FACE_OUTER_BOUND ( 'NONE', #205, .T. ) ;
#105 =( NAMED_UNIT ( * ) PLANE_ANGLE_UNIT ( ) SI_UNIT ( $, .RADIAN. ) );
#106 = ORIENTED_EDGE ( 'NONE', *, *, #6, .T. ) ;
#107 = DIRECTION ( 'NONE',  ( 1.000000000000000000, 0.000000000000000000, 0.000000000000000000 ) ) ;
#108 = CARTESIAN_POINT ( 'NONE',  ( 0.000000000000000000, 0.000000000000000000, 1.500000000000000000 ) ) ;
#109 = DIRECTION ( 'NONE',  ( -0.000000000000000000, -0.000000000000000000, -1.000000000000000000 ) ) ;
#110 = ORIENTED_EDGE ( 'NONE', *, *, #28, .F. ) ;
#111 = AXIS2_PLACEMENT_3D ( 'NONE', #199, #132, #223 ) ;
#112 = APPROVAL ( #271, 'NEURÈENÝ' ) ;
#113 = ORIENTED_EDGE ( 'NONE', *, *, #221, .F. ) ;
#114 = CARTESIAN_POINT ( 'NONE',  ( 0.000000000000000000, 0.000000000000000000, 1.700000000000007061 ) ) ;
#115 = SECURITY_CLASSIFICATION ( '', '', #82 ) ;
#116 = DIRECTION ( 'NONE',  ( 0.000000000000000000, 0.000000000000000000, 1.000000000000000000 ) ) ;
#117 = EDGE_CURVE ( 'NONE', #133, #156, #98, .T. ) ;
#118 = LINE ( 'NONE', #75, #35 ) ;
#119 = AXIS2_PLACEMENT_3D ( 'NONE', #67, #19, #260 ) ;
#120 = DATE_TIME_ROLE ( 'classification_date' ) ;
#121 = ADVANCED_FACE ( 'NONE', ( #23 ), #173, .F. ) ;
#122 = APPLICATION_PROTOCOL_DEFINITION ( 'international standard', 'config_control_design', 1994, #80 ) ;
#123 = CARTESIAN_POINT ( 'NONE',  ( 0.000000000000000000, 0.000000000000000000, 0.000000000000000000 ) ) ;
#124 = PERSON_AND_ORGANIZATION ( #102, #180 ) ;
#125 = APPROVAL_PERSON_ORGANIZATION ( #27, #235, #54 ) ;
#126 = CC_DESIGN_PERSON_AND_ORGANIZATION_ASSIGNMENT ( #56, #242, ( #78 ) ) ;
#127 = FACE_BOUND ( 'NONE', #130, .T. ) ;
#128 = COORDINATED_UNIVERSAL_TIME_OFFSET ( 1, 0, .AHEAD. ) ;
#129 = AXIS2_PLACEMENT_3D ( 'NONE', #135, #252, #16 ) ;
#130 = EDGE_LOOP ( 'NONE', ( #106, #66 ) ) ;
#131 = ORIENTED_EDGE ( 'NONE', *, *, #25, .F. ) ;
#132 = DIRECTION ( 'NONE',  ( 0.000000000000000000, 0.000000000000000000, 1.000000000000000000 ) ) ;
#133 = VERTEX_POINT ( 'NONE', #232 ) ;
#134 = CARTESIAN_POINT ( 'NONE',  ( 0.000000000000000000, 0.000000000000000000, 101.5000000000000000 ) ) ;
#135 = CARTESIAN_POINT ( 'NONE',  ( 0.8499999999999999778, 0.000000000000000000, 1.700000000000007061 ) ) ;
#136 = ORIENTED_EDGE ( 'NONE', *, *, #28, .T. ) ;
#137 = CARTESIAN_POINT ( 'NONE',  ( 0.6500000000000000222, 7.960204194457795477E-17, 1.700000000000007061 ) ) ;
#138 = ORIENTED_EDGE ( 'NONE', *, *, #25, .T. ) ;
#139 = CIRCLE ( 'NONE', #176, 1.500000000000000222 ) ;
#140 = DIRECTION ( 'NONE',  ( 1.000000000000000000, 0.000000000000000000, -0.000000000000000000 ) ) ;
#141 = CC_DESIGN_PERSON_AND_ORGANIZATION_ASSIGNMENT ( #295, #167, ( #79 ) ) ;
#142 = VECTOR ( 'NONE', #191, 1000.000000000000000 ) ;
#143 = DIRECTION ( 'NONE',  ( -1.000000000000000000, 0.000000000000000000, 0.000000000000000000 ) ) ;
#144 = APPLICATION_CONTEXT ( 'configuration controlled 3d designs of mechanical parts and assemblies' ) ;
#145 = AXIS2_PLACEMENT_3D ( 'NONE', #236, #22, #286 ) ;
#146 = PRODUCT_RELATED_PRODUCT_CATEGORY ( 'detail', '', ( #100 ) ) ;
#147 = COORDINATED_UNIVERSAL_TIME_OFFSET ( 1, 0, .AHEAD. ) ;
#148 = PERSON_AND_ORGANIZATION ( #102, #180 ) ;
#149 = ADVANCED_FACE ( 'NONE', ( #48 ), #3, .T. ) ;
#150 = PERSON_AND_ORGANIZATION_ROLE ( 'design_owner' ) ;
#151 = CALENDAR_DATE ( 2022, 7, 7 ) ;
#152 = CARTESIAN_POINT ( 'NONE',  ( 0.000000000000000000, 0.000000000000000000, 1.500000000000000000 ) ) ;
#153 =( GEOMETRIC_REPRESENTATION_CONTEXT ( 3 ) GLOBAL_UNCERTAINTY_ASSIGNED_CONTEXT ( ( #63 ) ) GLOBAL_UNIT_ASSIGNED_CONTEXT ( ( #273, #105, #7 ) ) REPRESENTATION_CONTEXT ( 'NONE', 'WORKASPACE' ) );
#154 = PLANE ( 'NONE',  #184 ) ;
#155 = ORIENTED_EDGE ( 'NONE', *, *, #93, .F. ) ;
#156 = VERTEX_POINT ( 'NONE', #50 ) ;
#157 = ADVANCED_FACE ( 'NONE', ( #306 ), #193, .F. ) ;
#158 = FACE_OUTER_BOUND ( 'NONE', #284, .T. ) ;
#159 = DIRECTION ( 'NONE',  ( 1.224646799147353207E-16, 1.000000000000000000, -0.000000000000000000 ) ) ;
#160 = DIRECTION ( 'NONE',  ( -0.000000000000000000, -0.000000000000000000, -1.000000000000000000 ) ) ;
#161 = VERTEX_POINT ( 'NONE', #137 ) ;
#162 = VERTEX_POINT ( 'NONE', #91 ) ;
#163 = DIRECTION ( 'NONE',  ( 1.000000000000000000, 0.000000000000000000, 0.000000000000000000 ) ) ;
#164 = DIRECTION ( 'NONE',  ( 1.000000000000000000, 0.000000000000000000, 0.000000000000000000 ) ) ;
#165 = CIRCLE ( 'NONE', #29, 1.500000000000000222 ) ;
#166 = DIRECTION ( 'NONE',  ( -1.000000000000000000, 0.000000000000000000, 0.000000000000000000 ) ) ;
#167 = PERSON_AND_ORGANIZATION_ROLE ( 'design_supplier' ) ;
#168 = CIRCLE ( 'NONE', #145, 1.500000000000000222 ) ;
#169 = SHAPE_DEFINITION_REPRESENTATION ( #5, #53 ) ;
#170 = CC_DESIGN_PERSON_AND_ORGANIZATION_ASSIGNMENT ( #37, #77, ( #79 ) ) ;
#171 = DIRECTION ( 'NONE',  ( 0.000000000000000000, 0.000000000000000000, 1.000000000000000000 ) ) ;
#172 = DATE_AND_TIME ( #239, #293 ) ;
#173 = TOROIDAL_SURFACE ( 'NONE', #43, 0.8499999999999999778, 0.2000000000000000111 ) ;
#174 = AXIS2_PLACEMENT_3D ( 'NONE', #229, #116, #140 ) ;
#175 = PERSON_AND_ORGANIZATION ( #102, #180 ) ;
#176 = AXIS2_PLACEMENT_3D ( 'NONE', #108, #92, #187 ) ;
#177 = APPROVAL_DATE_TIME ( #30, #195 ) ;
#178 = ORIENTED_EDGE ( 'NONE', *, *, #117, .F. ) ;
#179 = PERSON_AND_ORGANIZATION ( #102, #180 ) ;
#180 = ORGANIZATION ( 'NEURÈENÝ', 'NEURÈENÝ', '' ) ;
#181 = ORIENTED_EDGE ( 'NONE', *, *, #10, .T. ) ;
#182 = ORIENTED_EDGE ( 'NONE', *, *, #255, .F. ) ;
#183 = ORIENTED_EDGE ( 'NONE', *, *, #269, .T. ) ;
#184 = AXIS2_PLACEMENT_3D ( 'NONE', #300, #39, #249 ) ;
#185 = LINE ( 'NONE', #62, #17 ) ;
#186 = CARTESIAN_POINT ( 'NONE',  ( 0.000000000000000000, 0.000000000000000000, 1.500000000000000000 ) ) ;
#187 = DIRECTION ( 'NONE',  ( 1.000000000000000000, 0.000000000000000000, 0.000000000000000000 ) ) ;
#188 = CC_DESIGN_SECURITY_CLASSIFICATION ( #115, ( #79 ) ) ;
#189 = ORIENTED_EDGE ( 'NONE', *, *, #64, .F. ) ;
#190 = ADVANCED_FACE ( 'NONE', ( #158 ), #71, .T. ) ;
#191 = DIRECTION ( 'NONE',  ( -0.000000000000000000, -0.000000000000000000, -1.000000000000000000 ) ) ;
#192 = CARTESIAN_POINT ( 'NONE',  ( -1.500000000000000222, 0.000000000000000000, 1.500000000000000000 ) ) ;
#193 = PLANE ( 'NONE',  #24 ) ;
#194 = APPROVAL_DATE_TIME ( #172, #235 ) ;
#195 = APPROVAL ( #9, 'NEURÈENÝ' ) ;
#196 = AXIS2_PLACEMENT_3D ( 'NONE', #186, #160, #143 ) ;
#197 = DIRECTION ( 'NONE',  ( 1.000000000000000000, 0.000000000000000000, 0.000000000000000000 ) ) ;
#198 = CLOSED_SHELL ( 'NONE', ( #303, #202, #149, #245, #1, #157, #97, #190, #121 ) ) ;
#199 = CARTESIAN_POINT ( 'NONE',  ( 0.000000000000000000, 0.000000000000000000, 1.700000000000007061 ) ) ;
#200 = DIRECTION ( 'NONE',  ( 1.000000000000000000, 0.000000000000000000, 0.000000000000000000 ) ) ;
#201 = ORIENTED_EDGE ( 'NONE', *, *, #214, .F. ) ;
#202 = ADVANCED_FACE ( 'NONE', ( #281 ), #2, .T. ) ;
#203 = ORIENTED_EDGE ( 'NONE', *, *, #21, .T. ) ;
#204 = APPROVAL_PERSON_ORGANIZATION ( #175, #112, #294 ) ;
#205 = EDGE_LOOP ( 'NONE', ( #189, #178, #136, #277 ) ) ;
#206 = ORIENTED_EDGE ( 'NONE', *, *, #117, .T. ) ;
#207 = CARTESIAN_POINT ( 'NONE',  ( 0.000000000000000000, 0.000000000000000000, 0.000000000000000000 ) ) ;
#208 = CYLINDRICAL_SURFACE ( 'NONE', #296, 0.6500000000000000222 ) ;
#209 = ORIENTED_EDGE ( 'NONE', *, *, #221, .T. ) ;
#210 = CARTESIAN_POINT ( 'NONE',  ( -0.6500000000000000222, 0.000000000000000000, 1.700000000000007061 ) ) ;
#211 = LOCAL_TIME ( 12, 40, 15.00000000000000000, #244 ) ;
#212 = DIRECTION ( 'NONE',  ( 0.000000000000000000, 0.000000000000000000, 1.000000000000000000 ) ) ;
#213 = CARTESIAN_POINT ( 'NONE',  ( 1.500000000000000222, 1.836970198721030181E-16, 1.500000000000000000 ) ) ;
#214 = EDGE_CURVE ( 'NONE', #279, #228, #165, .T. ) ;
#215 = CC_DESIGN_APPROVAL ( #195, ( #79 ) ) ;
#216 = CC_DESIGN_APPROVAL ( #112, ( #78 ) ) ;
#217 = CIRCLE ( 'NONE', #129, 0.2000000000000000944 ) ;
#218 = DATE_AND_TIME ( #268, #83 ) ;
#219 = CIRCLE ( 'NONE', #31, 0.8499999999999999778 ) ;
#220 = DIRECTION ( 'NONE',  ( 0.000000000000000000, 0.000000000000000000, 1.000000000000000000 ) ) ;
#221 = EDGE_CURVE ( 'NONE', #228, #44, #95, .T. ) ;
#222 = FACE_OUTER_BOUND ( 'NONE', #280, .T. ) ;
#223 = DIRECTION ( 'NONE',  ( 1.000000000000000000, 0.000000000000000000, 0.000000000000000000 ) ) ;
#224 = CARTESIAN_POINT ( 'NONE',  ( 0.000000000000000000, 0.000000000000000000, 1.500000000000000000 ) ) ;
#225 = ORIENTED_EDGE ( 'NONE', *, *, #93, .T. ) ;
#226 = LINE ( 'NONE', #72, #101 ) ;
#227 = LOCAL_TIME ( 12, 40, 15.00000000000000000, #59 ) ;
#228 = VERTEX_POINT ( 'NONE', #192 ) ;
#229 = CARTESIAN_POINT ( 'NONE',  ( 0.000000000000000000, 0.000000000000000000, 101.5000000000000000 ) ) ;
#230 = CARTESIAN_POINT ( 'NONE',  ( -0.8499999999999999778, 1.040949779275250140E-16, 1.700000000000007061 ) ) ;
#231 = VERTEX_POINT ( 'NONE', #210 ) ;
#232 = CARTESIAN_POINT ( 'NONE',  ( -0.6500000000000000222, 0.000000000000000000, 101.5000000000000000 ) ) ;
#233 = AXIS2_PLACEMENT_3D ( 'NONE', #65, #90, #42 ) ;
#234 = DIRECTION ( 'NONE',  ( -0.000000000000000000, -0.000000000000000000, -1.000000000000000000 ) ) ;
#235 = APPROVAL ( #263, 'NEURÈENÝ' ) ;
#236 = CARTESIAN_POINT ( 'NONE',  ( 0.000000000000000000, 0.000000000000000000, 0.000000000000000000 ) ) ;
#237 = CC_DESIGN_APPROVAL ( #235, ( #115 ) ) ;
#238 = CARTESIAN_POINT ( 'NONE',  ( -0.8499999999999999778, 1.040949779275250140E-16, 1.500000000000003553 ) ) ;
#239 = CALENDAR_DATE ( 2022, 7, 7 ) ;
#240 = DATE_AND_TIME ( #297, #211 ) ;
#241 = AXIS2_PLACEMENT_3D ( 'NONE', #13, #274, #107 ) ;
#242 = PERSON_AND_ORGANIZATION_ROLE ( 'creator' ) ;
#243 = CIRCLE ( 'NONE', #60, 0.6500000000000000222 ) ;
#244 = COORDINATED_UNIVERSAL_TIME_OFFSET ( 1, 0, .AHEAD. ) ;
#245 = ADVANCED_FACE ( 'NONE', ( #285 ), #278, .T. ) ;
#246 = ORIENTED_EDGE ( 'NONE', *, *, #74, .F. ) ;
#247 = EDGE_LOOP ( 'NONE', ( #275, #301 ) ) ;
#248 = ORIENTED_EDGE ( 'NONE', *, *, #6, .F. ) ;
#249 = DIRECTION ( 'NONE',  ( 1.000000000000000000, 0.000000000000000000, -0.000000000000000000 ) ) ;
#250 = ORIENTED_EDGE ( 'NONE', *, *, #74, .T. ) ;
#251 = DIRECTION ( 'NONE',  ( 1.000000000000000000, 0.000000000000000000, 0.000000000000000000 ) ) ;
#252 = DIRECTION ( 'NONE',  ( 0.000000000000000000, -1.000000000000000000, 0.000000000000000000 ) ) ;
#253 = ORIENTED_EDGE ( 'NONE', *, *, #10, .F. ) ;
#254 = CARTESIAN_POINT ( 'NONE',  ( 0.000000000000000000, 0.000000000000000000, 101.5000000000000000 ) ) ;
#255 = EDGE_CURVE ( 'NONE', #231, #161, #243, .T. ) ;
#256 = EDGE_LOOP ( 'NONE', ( #253, #49, #203, #110 ) ) ;
#257 = VERTEX_POINT ( 'NONE', #238 ) ;
#258 = DIRECTION ( 'NONE',  ( 1.000000000000000000, 0.000000000000000000, 0.000000000000000000 ) ) ;
#259 = CIRCLE ( 'NONE', #111, 0.6500000000000000222 ) ;
#260 = DIRECTION ( 'NONE',  ( -1.000000000000000000, 0.000000000000000000, 0.000000000000000000 ) ) ;
#261 = EDGE_CURVE ( 'NONE', #69, #44, #168, .T. ) ;
#262 = CARTESIAN_POINT ( 'NONE',  ( -1.500000000000000222, 0.000000000000000000, 1.500000000000000000 ) ) ;
#263 = APPROVAL_STATUS ( 'not_yet_approved' ) ;
#264 = AXIS2_PLACEMENT_3D ( 'NONE', #32, #171, #85 ) ;
#265 = CIRCLE ( 'NONE', #241, 0.6500000000000000222 ) ;
#266 = AXIS2_PLACEMENT_3D ( 'NONE', #230, #159, #282 ) ;
#267 = APPROVAL_DATE_TIME ( #81, #112 ) ;
#268 = CALENDAR_DATE ( 2022, 7, 7 ) ;
#269 = EDGE_CURVE ( 'NONE', #279, #69, #118, .T. ) ;
#270 = CIRCLE ( 'NONE', #70, 0.8499999999999999778 ) ;
#271 = APPROVAL_STATUS ( 'not_yet_approved' ) ;
#272 = CC_DESIGN_DATE_AND_TIME_ASSIGNMENT ( #240, #33, ( #78 ) ) ;
#273 =( LENGTH_UNIT ( ) NAMED_UNIT ( * ) SI_UNIT ( .MILLI., .METRE. ) );
#274 = DIRECTION ( 'NONE',  ( 0.000000000000000000, 0.000000000000000000, 1.000000000000000000 ) ) ;
#275 = ORIENTED_EDGE ( 'NONE', *, *, #55, .F. ) ;
#276 = CARTESIAN_POINT ( 'NONE',  ( -1.500000000000000222, 0.000000000000000000, 0.000000000000000000 ) ) ;
#277 = ORIENTED_EDGE ( 'NONE', *, *, #255, .T. ) ;
#278 = CYLINDRICAL_SURFACE ( 'NONE', #119, 1.500000000000000222 ) ;
#279 = VERTEX_POINT ( 'NONE', #213 ) ;
#280 = EDGE_LOOP ( 'NONE', ( #182, #138, #248, #155 ) ) ;
#281 = FACE_OUTER_BOUND ( 'NONE', #256, .T. ) ;
#282 = DIRECTION ( 'NONE',  ( -1.000000000000000000, 1.224646799147352714E-16, 0.000000000000000000 ) ) ;
#283 = AXIS2_PLACEMENT_3D ( 'NONE', #254, #109, #166 ) ;
#284 = EDGE_LOOP ( 'NONE', ( #206, #181 ) ) ;
#285 = FACE_OUTER_BOUND ( 'NONE', #68, .T. ) ;
#286 = DIRECTION ( 'NONE',  ( 1.000000000000000000, 0.000000000000000000, 0.000000000000000000 ) ) ;
#287 = CC_DESIGN_PERSON_AND_ORGANIZATION_ASSIGNMENT ( #148, #291, ( #115 ) ) ;
#288 = DIRECTION ( 'NONE',  ( 0.000000000000000000, 0.000000000000000000, 1.000000000000000000 ) ) ;
#289 = LOCAL_TIME ( 12, 40, 15.00000000000000000, #128 ) ;
#290 = CIRCLE ( 'NONE', #266, 0.1999999999999999833 ) ;
#291 = PERSON_AND_ORGANIZATION_ROLE ( 'classification_officer' ) ;
#292 = EDGE_CURVE ( 'NONE', #257, #162, #270, .T. ) ;
#293 = LOCAL_TIME ( 12, 40, 15.00000000000000000, #147 ) ;
#294 = APPROVAL_ROLE ( '' ) ;
#295 = PERSON_AND_ORGANIZATION ( #102, #180 ) ;
#296 = AXIS2_PLACEMENT_3D ( 'NONE', #305, #298, #87 ) ;
#297 = CALENDAR_DATE ( 2022, 7, 7 ) ;
#298 = DIRECTION ( 'NONE',  ( -0.000000000000000000, -0.000000000000000000, -1.000000000000000000 ) ) ;
#299 = EDGE_LOOP ( 'NONE', ( #250, #36 ) ) ;
#300 = CARTESIAN_POINT ( 'NONE',  ( 0.000000000000000000, 0.000000000000000000, 1.500000000000000000 ) ) ;
#301 = ORIENTED_EDGE ( 'NONE', *, *, #261, .F. ) ;
#302 = DIRECTION ( 'NONE',  ( 1.000000000000000000, 0.000000000000000000, 0.000000000000000000 ) ) ;
#303 = ADVANCED_FACE ( 'NONE', ( #222 ), #99, .F. ) ;
#304 = DIRECTION ( 'NONE',  ( 0.000000000000000000, 0.000000000000000000, 1.000000000000000000 ) ) ;
#305 = CARTESIAN_POINT ( 'NONE',  ( 0.000000000000000000, 0.000000000000000000, 101.5000000000000000 ) ) ;
#306 = FACE_OUTER_BOUND ( 'NONE', #247, .T. ) ;
#307 = APPROVAL_PERSON_ORGANIZATION ( #124, #195, #103 ) ;
ENDSEC;
END-ISO-10303-21;
