ISO-10303-21;
HEADER;
FILE_DESCRIPTION (( 'STEP AP203' ),
    '1' );
FILE_NAME ('93b6.STEP',
    '2022-07-07T10:34:05',
    ( '' ),
    ( '' ),
    'SwSTEP 2.0',
    'SolidWorks 2019',
    '' );
FILE_SCHEMA (( 'CONFIG_CONTROL_DESIGN' ));
ENDSEC;

DATA;
#1 = CYLINDRICAL_SURFACE ( 'NONE', #17, 2.000000000000000000 ) ;
#2 = DIRECTION ( 'NONE',  ( 1.000000000000000000, 0.000000000000000000, 0.000000000000000000 ) ) ;
#3 = AXIS2_PLACEMENT_3D ( 'NONE', #179, #104, #284 ) ;
#4 = FACE_BOUND ( 'NONE', #299, .T. ) ;
#5 = ADVANCED_FACE ( 'NONE', ( #145 ), #303, .F. ) ;
#6 = CARTESIAN_POINT ( 'NONE',  ( 0.000000000000000000, 0.000000000000000000, 252.0000000000000000 ) ) ;
#7 = AXIS2_PLACEMENT_3D ( 'NONE', #160, #298, #181 ) ;
#8 = DATE_TIME_ROLE ( 'creation_date' ) ;
#9 = PERSON_AND_ORGANIZATION ( #278, #295 ) ;
#10 = PERSON_AND_ORGANIZATION ( #278, #295 ) ;
#11 = APPROVAL_DATE_TIME ( #137, #208 ) ;
#12 = AXIS2_PLACEMENT_3D ( 'NONE', #213, #187, #258 ) ;
#13 = ORIENTED_EDGE ( 'NONE', *, *, #110, .F. ) ;
#14 = EDGE_CURVE ( 'NONE', #116, #44, #128, .T. ) ;
#15 = ORIENTED_EDGE ( 'NONE', *, *, #255, .T. ) ;
#16 = CARTESIAN_POINT ( 'NONE',  ( 1.100000000000000089, 1.347111479062088503E-16, 2.200000000000007283 ) ) ;
#17 = AXIS2_PLACEMENT_3D ( 'NONE', #82, #236, #81 ) ;
#18 = CC_DESIGN_SECURITY_CLASSIFICATION ( #199, ( #102 ) ) ;
#19 = ORIENTED_EDGE ( 'NONE', *, *, #196, .F. ) ;
#20 = CYLINDRICAL_SURFACE ( 'NONE', #269, 1.100000000000000089 ) ;
#21 = VERTEX_POINT ( 'NONE', #16 ) ;
#22 = PRODUCT_RELATED_PRODUCT_CATEGORY ( 'detail', '', ( #41 ) ) ;
#23 = CIRCLE ( 'NONE', #288, 1.300000000000000266 ) ;
#24 = ORIENTED_EDGE ( 'NONE', *, *, #103, .T. ) ;
#25 = LINE ( 'NONE', #250, #75 ) ;
#26 = APPLICATION_CONTEXT ( 'configuration controlled 3d designs of mechanical parts and assemblies' ) ;
#27 = DIRECTION ( 'NONE',  ( 0.000000000000000000, 0.000000000000000000, 1.000000000000000000 ) ) ;
#28 = DIRECTION ( 'NONE',  ( 1.000000000000000000, 0.000000000000000000, 0.000000000000000000 ) ) ;
#29 = LOCAL_TIME ( 12, 34, 5.000000000000000000, #133 ) ;
#30 = FACE_OUTER_BOUND ( 'NONE', #202, .T. ) ;
#31 = APPLICATION_PROTOCOL_DEFINITION ( 'international standard', 'config_control_design', 1994, #92 ) ;
#32 = PERSON_AND_ORGANIZATION_ROLE ( 'creator' ) ;
#33 = CALENDAR_DATE ( 2022, 7, 7 ) ;
#34 = CIRCLE ( 'NONE', #167, 1.100000000000000089 ) ;
#35 = CALENDAR_DATE ( 2022, 7, 7 ) ;
#36 = AXIS2_PLACEMENT_3D ( 'NONE', #146, #143, #93 ) ;
#37 = PERSON_AND_ORGANIZATION_ROLE ( 'design_supplier' ) ;
#38 = ORIENTED_EDGE ( 'NONE', *, *, #86, .T. ) ;
#39 = ORIENTED_EDGE ( 'NONE', *, *, #304, .F. ) ;
#40 = CARTESIAN_POINT ( 'NONE',  ( 1.300000000000000266, 0.000000000000000000, 2.200000000000007283 ) ) ;
#41 = PRODUCT ( '93b6', '93b6', '', ( #240 ) ) ;
#42 = EDGE_LOOP ( 'NONE', ( #184, #39, #267, #15 ) ) ;
#43 = EDGE_CURVE ( 'NONE', #275, #21, #25, .T. ) ;
#44 = VERTEX_POINT ( 'NONE', #230 ) ;
#45 = DIRECTION ( 'NONE',  ( -0.000000000000000000, -0.000000000000000000, -1.000000000000000000 ) ) ;
#46 = CC_DESIGN_PERSON_AND_ORGANIZATION_ASSIGNMENT ( #9, #90, ( #41 ) ) ;
#47 = DIRECTION ( 'NONE',  ( -0.000000000000000000, -0.000000000000000000, -1.000000000000000000 ) ) ;
#48 = CIRCLE ( 'NONE', #287, 1.100000000000000089 ) ;
#49 = EDGE_LOOP ( 'NONE', ( #180, #251, #227, #305 ) ) ;
#50 = CARTESIAN_POINT ( 'NONE',  ( 1.100000000000000089, 1.347111479062088503E-16, 252.0000000000000000 ) ) ;
#51 = CC_DESIGN_APPROVAL ( #57, ( #102 ) ) ;
#52 = CC_DESIGN_PERSON_AND_ORGANIZATION_ASSIGNMENT ( #296, #294, ( #102 ) ) ;
#53 = DIRECTION ( 'NONE',  ( 0.000000000000000000, 0.000000000000000000, 1.000000000000000000 ) ) ;
#54 = VECTOR ( 'NONE', #45, 1000.000000000000000 ) ;
#55 = ADVANCED_FACE ( 'NONE', ( #94 ), #20, .T. ) ;
#56 = FACE_OUTER_BOUND ( 'NONE', #307, .T. ) ;
#57 = APPROVAL ( #114, 'NEURÈENÝ' ) ;
#58 = AXIS2_PLACEMENT_3D ( 'NONE', #78, #150, #166 ) ;
#59 = CYLINDRICAL_SURFACE ( 'NONE', #212, 2.000000000000000000 ) ;
#60 = APPROVAL_ROLE ( '' ) ;
#61 = DATE_AND_TIME ( #195, #245 ) ;
#62 = DIRECTION ( 'NONE',  ( 0.000000000000000000, 0.000000000000000000, 1.000000000000000000 ) ) ;
#63 = CLOSED_SHELL ( 'NONE', ( #190, #144, #243, #225, #178, #5, #55, #264, #233 ) ) ;
#64 = ORIENTED_EDGE ( 'NONE', *, *, #14, .F. ) ;
#65 = CARTESIAN_POINT ( 'NONE',  ( 0.000000000000000000, 0.000000000000000000, 0.000000000000000000 ) ) ;
#66 = VERTEX_POINT ( 'NONE', #211 ) ;
#67 = AXIS2_PLACEMENT_3D ( 'NONE', #189, #53, #2 ) ;
#68 = DIRECTION ( 'NONE',  ( -0.000000000000000000, -0.000000000000000000, -1.000000000000000000 ) ) ;
#69 = ORIENTED_EDGE ( 'NONE', *, *, #255, .F. ) ;
#70 = CARTESIAN_POINT ( 'NONE',  ( 0.000000000000000000, 0.000000000000000000, 252.0000000000000000 ) ) ;
#71 = ORIENTED_EDGE ( 'NONE', *, *, #127, .F. ) ;
#72 = DIRECTION ( 'NONE',  ( 0.000000000000000000, 0.000000000000000000, -1.000000000000000000 ) ) ;
#73 = ORIENTED_EDGE ( 'NONE', *, *, #140, .T. ) ;
#74 = DIRECTION ( 'NONE',  ( 1.000000000000000000, 0.000000000000000000, 0.000000000000000000 ) ) ;
#75 = VECTOR ( 'NONE', #161, 1000.000000000000000 ) ;
#76 =( LENGTH_UNIT ( ) NAMED_UNIT ( * ) SI_UNIT ( .MILLI., .METRE. ) );
#77 = CC_DESIGN_PERSON_AND_ORGANIZATION_ASSIGNMENT ( #113, #32, ( #193 ) ) ;
#78 = CARTESIAN_POINT ( 'NONE',  ( 0.000000000000000000, 0.000000000000000000, 2.000000000000000000 ) ) ;
#79 = CIRCLE ( 'NONE', #67, 2.000000000000000000 ) ;
#80 = LOCAL_TIME ( 12, 34, 5.000000000000000000, #87 ) ;
#81 = DIRECTION ( 'NONE',  ( -1.000000000000000000, 0.000000000000000000, 0.000000000000000000 ) ) ;
#82 = CARTESIAN_POINT ( 'NONE',  ( 0.000000000000000000, 0.000000000000000000, 2.000000000000000000 ) ) ;
#83 = FACE_OUTER_BOUND ( 'NONE', #49, .T. ) ;
#84 = AXIS2_PLACEMENT_3D ( 'NONE', #107, #261, #151 ) ;
#85 = PERSON_AND_ORGANIZATION ( #278, #295 ) ;
#86 = EDGE_CURVE ( 'NONE', #254, #44, #115, .T. ) ;
#87 = COORDINATED_UNIVERSAL_TIME_OFFSET ( 1, 0, .AHEAD. ) ;
#88 = EDGE_CURVE ( 'NONE', #204, #96, #231, .T. ) ;
#89 = VERTEX_POINT ( 'NONE', #117 ) ;
#90 = PERSON_AND_ORGANIZATION_ROLE ( 'design_owner' ) ;
#91 = CARTESIAN_POINT ( 'NONE',  ( 2.000000000000000000, 2.449293598294706414E-16, 2.000000000000000000 ) ) ;
#92 = APPLICATION_CONTEXT ( 'configuration controlled 3d designs of mechanical parts and assemblies' ) ;
#93 = DIRECTION ( 'NONE',  ( 1.000000000000000000, 0.000000000000000000, 0.000000000000000000 ) ) ;
#94 = FACE_OUTER_BOUND ( 'NONE', #42, .T. ) ;
#95 = UNCERTAINTY_MEASURE_WITH_UNIT (LENGTH_MEASURE( 1.000000000000000082E-05 ), #76, 'distance_accuracy_value', 'NONE');
#96 = VERTEX_POINT ( 'NONE', #121 ) ;
#97 = ORIENTED_EDGE ( 'NONE', *, *, #153, .F. ) ;
#98 = VERTEX_POINT ( 'NONE', #91 ) ;
#99 = CARTESIAN_POINT ( 'NONE',  ( 0.000000000000000000, 0.000000000000000000, 2.200000000000007283 ) ) ;
#100 = AXIS2_PLACEMENT_3D ( 'NONE', #147, #214, #286 ) ;
#101 = EDGE_CURVE ( 'NONE', #21, #116, #220, .T. ) ;
#102 = PRODUCT_DEFINITION_FORMATION_WITH_SPECIFIED_SOURCE ( 'LIBOVOLNÝ', '', #41, .NOT_KNOWN. ) ;
#103 = EDGE_CURVE ( 'NONE', #204, #98, #293, .T. ) ;
#104 = DIRECTION ( 'NONE',  ( -0.000000000000000000, -0.000000000000000000, -1.000000000000000000 ) ) ;
#105 = DIRECTION ( 'NONE',  ( 1.000000000000000000, 0.000000000000000000, 0.000000000000000000 ) ) ;
#106 = AXIS2_PLACEMENT_3D ( 'NONE', #131, #235, #105 ) ;
#107 = CARTESIAN_POINT ( 'NONE',  ( 0.000000000000000000, 0.000000000000000000, 252.0000000000000000 ) ) ;
#108 = DIRECTION ( 'NONE',  ( -0.000000000000000000, -0.000000000000000000, -1.000000000000000000 ) ) ;
#109 = SECURITY_CLASSIFICATION_LEVEL ( 'unclassified' ) ;
#110 = EDGE_CURVE ( 'NONE', #89, #254, #164, .T. ) ;
#111 = CIRCLE ( 'NONE', #100, 2.000000000000000000 ) ;
#112 = APPROVAL_ROLE ( '' ) ;
#113 = PERSON_AND_ORGANIZATION ( #278, #295 ) ;
#114 = APPROVAL_STATUS ( 'not_yet_approved' ) ;
#115 = CIRCLE ( 'NONE', #7, 0.2000000000000000944 ) ;
#116 = VERTEX_POINT ( 'NONE', #232 ) ;
#117 = CARTESIAN_POINT ( 'NONE',  ( -1.100000000000000089, 0.000000000000000000, 252.0000000000000000 ) ) ;
#118 = CC_DESIGN_PERSON_AND_ORGANIZATION_ASSIGNMENT ( #85, #174, ( #199 ) ) ;
#119 = ORIENTED_EDGE ( 'NONE', *, *, #86, .F. ) ;
#120 = EDGE_LOOP ( 'NONE', ( #279, #177, #175, #13 ) ) ;
#121 = CARTESIAN_POINT ( 'NONE',  ( -2.000000000000000000, 0.000000000000000000, 0.000000000000000000 ) ) ;
#122 = VECTOR ( 'NONE', #47, 1000.000000000000000 ) ;
#123 = CARTESIAN_POINT ( 'NONE',  ( 0.000000000000000000, 0.000000000000000000, 2.000000000000000000 ) ) ;
#124 = LINE ( 'NONE', #191, #194 ) ;
#125 = LOCAL_TIME ( 12, 34, 5.000000000000000000, #239 ) ;
#126 =( NAMED_UNIT ( * ) PLANE_ANGLE_UNIT ( ) SI_UNIT ( $, .RADIAN. ) );
#127 = EDGE_CURVE ( 'NONE', #21, #254, #48, .T. ) ;
#128 = CIRCLE ( 'NONE', #36, 1.300000000000000266 ) ;
#129 = CARTESIAN_POINT ( 'NONE',  ( 0.000000000000000000, 0.000000000000000000, 2.000000000000000000 ) ) ;
#130 = CARTESIAN_POINT ( 'NONE',  ( -2.000000000000000000, 0.000000000000000000, 2.000000000000000000 ) ) ;
#131 = CARTESIAN_POINT ( 'NONE',  ( 0.000000000000000000, 0.000000000000000000, 2.200000000000007283 ) ) ;
#132 = COORDINATED_UNIVERSAL_TIME_OFFSET ( 1, 0, .AHEAD. ) ;
#133 = COORDINATED_UNIVERSAL_TIME_OFFSET ( 1, 0, .AHEAD. ) ;
#134 = APPROVAL ( #197, 'NEURÈENÝ' ) ;
#135 = APPROVAL_ROLE ( '' ) ;
#136 = DESIGN_CONTEXT ( 'detailed design', #26, 'design' ) ;
#137 = DATE_AND_TIME ( #35, #29 ) ;
#138 = PERSON_AND_ORGANIZATION ( #278, #295 ) ;
#139 = ORIENTED_EDGE ( 'NONE', *, *, #101, .F. ) ;
#140 = EDGE_CURVE ( 'NONE', #44, #116, #23, .T. ) ;
#141 = DIRECTION ( 'NONE',  ( 1.000000000000000000, 0.000000000000000000, 0.000000000000000000 ) ) ;
#142 = ORIENTED_EDGE ( 'NONE', *, *, #172, .F. ) ;
#143 = DIRECTION ( 'NONE',  ( -0.000000000000000000, -0.000000000000000000, -1.000000000000000000 ) ) ;
#144 = ADVANCED_FACE ( 'NONE', ( #205 ), #301, .T. ) ;
#145 = FACE_OUTER_BOUND ( 'NONE', #249, .T. ) ;
#146 = CARTESIAN_POINT ( 'NONE',  ( 0.000000000000000000, 0.000000000000000000, 2.000000000000000000 ) ) ;
#147 = CARTESIAN_POINT ( 'NONE',  ( 0.000000000000000000, 0.000000000000000000, 0.000000000000000000 ) ) ;
#148 = CIRCLE ( 'NONE', #152, 1.100000000000000089 ) ;
#149 = CARTESIAN_POINT ( 'NONE',  ( 0.000000000000000000, 0.000000000000000000, 2.200000000000007283 ) ) ;
#150 = DIRECTION ( 'NONE',  ( 0.000000000000000000, 0.000000000000000000, 1.000000000000000000 ) ) ;
#151 = DIRECTION ( 'NONE',  ( 1.000000000000000000, 0.000000000000000000, -0.000000000000000000 ) ) ;
#152 = AXIS2_PLACEMENT_3D ( 'NONE', #192, #169, #168 ) ;
#153 = EDGE_CURVE ( 'NONE', #66, #96, #79, .T. ) ;
#154 = TOROIDAL_SURFACE ( 'NONE', #106, 1.300000000000000266, 0.2000000000000000111 ) ;
#155 = AXIS2_PLACEMENT_3D ( 'NONE', #149, #27, #28 ) ;
#156 =( GEOMETRIC_REPRESENTATION_CONTEXT ( 3 ) GLOBAL_UNCERTAINTY_ASSIGNED_CONTEXT ( ( #95 ) ) GLOBAL_UNIT_ASSIGNED_CONTEXT ( ( #76, #126, #266 ) ) REPRESENTATION_CONTEXT ( 'NONE', 'WORKASPACE' ) );
#157 = APPROVAL_DATE_TIME ( #244, #57 ) ;
#158 = EDGE_CURVE ( 'NONE', #98, #66, #124, .T. ) ;
#159 = LOCAL_TIME ( 12, 34, 5.000000000000000000, #222 ) ;
#160 = CARTESIAN_POINT ( 'NONE',  ( -1.300000000000000266, 1.592040838891559342E-16, 2.200000000000007283 ) ) ;
#161 = DIRECTION ( 'NONE',  ( -0.000000000000000000, -0.000000000000000000, -1.000000000000000000 ) ) ;
#162 = ORIENTED_EDGE ( 'NONE', *, *, #153, .T. ) ;
#163 = APPROVAL_PERSON_ORGANIZATION ( #268, #134, #112 ) ;
#164 = LINE ( 'NONE', #253, #122 ) ;
#165 = ORIENTED_EDGE ( 'NONE', *, *, #158, .T. ) ;
#166 = DIRECTION ( 'NONE',  ( 1.000000000000000000, 0.000000000000000000, -0.000000000000000000 ) ) ;
#167 = AXIS2_PLACEMENT_3D ( 'NONE', #6, #289, #170 ) ;
#168 = DIRECTION ( 'NONE',  ( 1.000000000000000000, 0.000000000000000000, 0.000000000000000000 ) ) ;
#169 = DIRECTION ( 'NONE',  ( 0.000000000000000000, 0.000000000000000000, 1.000000000000000000 ) ) ;
#170 = DIRECTION ( 'NONE',  ( 1.000000000000000000, 0.000000000000000000, 0.000000000000000000 ) ) ;
#171 = DIRECTION ( 'NONE',  ( 1.000000000000000000, 0.000000000000000000, 0.000000000000000000 ) ) ;
#172 = EDGE_CURVE ( 'NONE', #98, #204, #185, .T. ) ;
#173 = CALENDAR_DATE ( 2022, 7, 7 ) ;
#174 = PERSON_AND_ORGANIZATION_ROLE ( 'classification_officer' ) ;
#175 = ORIENTED_EDGE ( 'NONE', *, *, #127, .T. ) ;
#176 = AXIS2_PLACEMENT_3D ( 'NONE', #123, #281, #74 ) ;
#177 = ORIENTED_EDGE ( 'NONE', *, *, #43, .T. ) ;
#178 = ADVANCED_FACE ( 'NONE', ( #4, #283 ), #216, .T. ) ;
#179 = CARTESIAN_POINT ( 'NONE',  ( 0.000000000000000000, 0.000000000000000000, 252.0000000000000000 ) ) ;
#180 = ORIENTED_EDGE ( 'NONE', *, *, #158, .F. ) ;
#181 = DIRECTION ( 'NONE',  ( -1.000000000000000000, 1.224646799147353207E-16, 0.000000000000000000 ) ) ;
#182 = ORIENTED_EDGE ( 'NONE', *, *, #101, .T. ) ;
#183 = DIRECTION ( 'NONE',  ( 0.000000000000000000, -1.000000000000000000, 0.000000000000000000 ) ) ;
#184 = ORIENTED_EDGE ( 'NONE', *, *, #43, .F. ) ;
#185 = CIRCLE ( 'NONE', #12, 2.000000000000000000 ) ;
#186 = DIRECTION ( 'NONE',  ( 1.000000000000000000, 0.000000000000000000, 0.000000000000000000 ) ) ;
#187 = DIRECTION ( 'NONE',  ( 0.000000000000000000, 0.000000000000000000, 1.000000000000000000 ) ) ;
#188 = CC_DESIGN_PERSON_AND_ORGANIZATION_ASSIGNMENT ( #138, #37, ( #102 ) ) ;
#189 = CARTESIAN_POINT ( 'NONE',  ( 0.000000000000000000, 0.000000000000000000, 0.000000000000000000 ) ) ;
#190 = ADVANCED_FACE ( 'NONE', ( #30 ), #154, .F. ) ;
#191 = CARTESIAN_POINT ( 'NONE',  ( 2.000000000000000000, 2.449293598294706414E-16, 2.000000000000000000 ) ) ;
#192 = CARTESIAN_POINT ( 'NONE',  ( 0.000000000000000000, 0.000000000000000000, 2.200000000000007283 ) ) ;
#193 = PRODUCT_DEFINITION ( 'NEZNÁMÝ', '', #102, #136 ) ;
#194 = VECTOR ( 'NONE', #108, 1000.000000000000000 ) ;
#195 = CALENDAR_DATE ( 2022, 7, 7 ) ;
#196 = EDGE_CURVE ( 'NONE', #96, #66, #111, .T. ) ;
#197 = APPROVAL_STATUS ( 'not_yet_approved' ) ;
#198 = SHAPE_DEFINITION_REPRESENTATION ( #300, #259 ) ;
#199 = SECURITY_CLASSIFICATION ( '', '', #109 ) ;
#200 = APPLICATION_PROTOCOL_DEFINITION ( 'international standard', 'config_control_design', 1994, #26 ) ;
#201 = EDGE_CURVE ( 'NONE', #275, #89, #262, .T. ) ;
#202 = EDGE_LOOP ( 'NONE', ( #69, #38, #64, #139 ) ) ;
#203 = CARTESIAN_POINT ( 'NONE',  ( 0.000000000000000000, 0.000000000000000000, 0.000000000000000000 ) ) ;
#204 = VERTEX_POINT ( 'NONE', #130 ) ;
#205 = FACE_OUTER_BOUND ( 'NONE', #120, .T. ) ;
#206 = AXIS2_PLACEMENT_3D ( 'NONE', #65, #62, #171 ) ;
#207 = DIRECTION ( 'NONE',  ( -0.000000000000000000, -0.000000000000000000, -1.000000000000000000 ) ) ;
#208 = APPROVAL ( #242, 'NEURÈENÝ' ) ;
#209 = ORIENTED_EDGE ( 'NONE', *, *, #172, .T. ) ;
#210 = EDGE_LOOP ( 'NONE', ( #142, #165, #162, #297 ) ) ;
#211 = CARTESIAN_POINT ( 'NONE',  ( 2.000000000000000000, 2.449293598294706414E-16, 0.000000000000000000 ) ) ;
#212 = AXIS2_PLACEMENT_3D ( 'NONE', #129, #238, #256 ) ;
#213 = CARTESIAN_POINT ( 'NONE',  ( 0.000000000000000000, 0.000000000000000000, 2.000000000000000000 ) ) ;
#214 = DIRECTION ( 'NONE',  ( 0.000000000000000000, 0.000000000000000000, 1.000000000000000000 ) ) ;
#215 = CC_DESIGN_DATE_AND_TIME_ASSIGNMENT ( #292, #8, ( #193 ) ) ;
#216 = PLANE ( 'NONE',  #58 ) ;
#217 = PLANE ( 'NONE',  #84 ) ;
#218 = CC_DESIGN_DATE_AND_TIME_ASSIGNMENT ( #226, #265, ( #199 ) ) ;
#219 = DIRECTION ( 'NONE',  ( 1.000000000000000000, 0.000000000000000000, 0.000000000000000000 ) ) ;
#220 = CIRCLE ( 'NONE', #224, 0.2000000000000000944 ) ;
#221 = APPROVAL_DATE_TIME ( #61, #134 ) ;
#222 = COORDINATED_UNIVERSAL_TIME_OFFSET ( 1, 0, .AHEAD. ) ;
#223 = PERSON_AND_ORGANIZATION ( #278, #295 ) ;
#224 = AXIS2_PLACEMENT_3D ( 'NONE', #40, #183, #72 ) ;
#225 = ADVANCED_FACE ( 'NONE', ( #83 ), #1, .T. ) ;
#226 = DATE_AND_TIME ( #173, #80 ) ;
#227 = ORIENTED_EDGE ( 'NONE', *, *, #88, .T. ) ;
#228 = CARTESIAN_POINT ( 'NONE',  ( -2.000000000000000000, 0.000000000000000000, 2.000000000000000000 ) ) ;
#229 = DIRECTION ( 'NONE',  ( 1.000000000000000000, 0.000000000000000000, -0.000000000000000000 ) ) ;
#230 = CARTESIAN_POINT ( 'NONE',  ( -1.300000000000000266, 1.592040838891559342E-16, 2.000000000000003553 ) ) ;
#231 = LINE ( 'NONE', #228, #54 ) ;
#232 = CARTESIAN_POINT ( 'NONE',  ( 1.300000000000000266, 0.000000000000000000, 2.000000000000003553 ) ) ;
#233 = ADVANCED_FACE ( 'NONE', ( #56 ), #257, .F. ) ;
#234 = CARTESIAN_POINT ( 'NONE',  ( -1.100000000000000089, 0.000000000000000000, 2.200000000000007283 ) ) ;
#235 = DIRECTION ( 'NONE',  ( 0.000000000000000000, 0.000000000000000000, 1.000000000000000000 ) ) ;
#236 = DIRECTION ( 'NONE',  ( -0.000000000000000000, -0.000000000000000000, -1.000000000000000000 ) ) ;
#237 = CARTESIAN_POINT ( 'NONE',  ( 0.000000000000000000, 0.000000000000000000, 252.0000000000000000 ) ) ;
#238 = DIRECTION ( 'NONE',  ( -0.000000000000000000, -0.000000000000000000, -1.000000000000000000 ) ) ;
#239 = COORDINATED_UNIVERSAL_TIME_OFFSET ( 1, 0, .AHEAD. ) ;
#240 = MECHANICAL_CONTEXT ( 'NONE', #92, 'mechanical' ) ;
#241 = CC_DESIGN_APPROVAL ( #208, ( #199 ) ) ;
#242 = APPROVAL_STATUS ( 'not_yet_approved' ) ;
#243 = ADVANCED_FACE ( 'NONE', ( #282 ), #59, .T. ) ;
#244 = DATE_AND_TIME ( #290, #159 ) ;
#245 = LOCAL_TIME ( 12, 34, 5.000000000000000000, #132 ) ;
#246 = ORIENTED_EDGE ( 'NONE', *, *, #140, .F. ) ;
#247 = DIRECTION ( 'NONE',  ( 0.000000000000000000, 0.000000000000000000, 1.000000000000000000 ) ) ;
#248 = DIRECTION ( 'NONE',  ( -1.000000000000000000, 0.000000000000000000, 0.000000000000000000 ) ) ;
#249 = EDGE_LOOP ( 'NONE', ( #19, #97 ) ) ;
#250 = CARTESIAN_POINT ( 'NONE',  ( 1.100000000000000089, 1.347111479062088503E-16, 252.0000000000000000 ) ) ;
#251 = ORIENTED_EDGE ( 'NONE', *, *, #103, .F. ) ;
#252 = CC_DESIGN_APPROVAL ( #134, ( #193 ) ) ;
#253 = CARTESIAN_POINT ( 'NONE',  ( -1.100000000000000089, 0.000000000000000000, 252.0000000000000000 ) ) ;
#254 = VERTEX_POINT ( 'NONE', #234 ) ;
#255 = EDGE_CURVE ( 'NONE', #254, #21, #148, .T. ) ;
#256 = DIRECTION ( 'NONE',  ( -1.000000000000000000, 0.000000000000000000, 0.000000000000000000 ) ) ;
#257 = TOROIDAL_SURFACE ( 'NONE', #155, 1.300000000000000266, 0.2000000000000000111 ) ;
#258 = DIRECTION ( 'NONE',  ( 1.000000000000000000, 0.000000000000000000, 0.000000000000000000 ) ) ;
#259 = ADVANCED_BREP_SHAPE_REPRESENTATION ( '93b6', ( #285, #206 ), #156 ) ;
#260 = FACE_OUTER_BOUND ( 'NONE', #306, .T. ) ;
#261 = DIRECTION ( 'NONE',  ( 0.000000000000000000, 0.000000000000000000, 1.000000000000000000 ) ) ;
#262 = CIRCLE ( 'NONE', #271, 1.100000000000000089 ) ;
#263 = DIRECTION ( 'NONE',  ( 0.000000000000000000, 0.000000000000000000, 1.000000000000000000 ) ) ;
#264 = ADVANCED_FACE ( 'NONE', ( #260 ), #217, .T. ) ;
#265 = DATE_TIME_ROLE ( 'classification_date' ) ;
#266 =( NAMED_UNIT ( * ) SI_UNIT ( $, .STERADIAN. ) SOLID_ANGLE_UNIT ( ) );
#267 = ORIENTED_EDGE ( 'NONE', *, *, #110, .T. ) ;
#268 = PERSON_AND_ORGANIZATION ( #278, #295 ) ;
#269 = AXIS2_PLACEMENT_3D ( 'NONE', #70, #207, #248 ) ;
#270 = CARTESIAN_POINT ( 'NONE',  ( 0.000000000000000000, 0.000000000000000000, 2.000000000000000000 ) ) ;
#271 = AXIS2_PLACEMENT_3D ( 'NONE', #237, #263, #219 ) ;
#272 = DIRECTION ( 'NONE',  ( 0.000000000000000000, 0.000000000000000000, 1.000000000000000000 ) ) ;
#273 = EDGE_LOOP ( 'NONE', ( #24, #209 ) ) ;
#274 = AXIS2_PLACEMENT_3D ( 'NONE', #203, #272, #229 ) ;
#275 = VERTEX_POINT ( 'NONE', #50 ) ;
#276 = ORIENTED_EDGE ( 'NONE', *, *, #201, .T. ) ;
#277 = ORIENTED_EDGE ( 'NONE', *, *, #14, .T. ) ;
#278 = PERSON ( 'NEURÈENÝ', 'NEURÈENÝ', 'NEURÈENÝ', ('NEURÈENÝ'), ('NEURÈENÝ'), ('NEURÈENÝ') ) ;
#279 = ORIENTED_EDGE ( 'NONE', *, *, #201, .F. ) ;
#280 = APPROVAL_PERSON_ORGANIZATION ( #223, #208, #60 ) ;
#281 = DIRECTION ( 'NONE',  ( 0.000000000000000000, 0.000000000000000000, 1.000000000000000000 ) ) ;
#282 = FACE_OUTER_BOUND ( 'NONE', #210, .T. ) ;
#283 = FACE_OUTER_BOUND ( 'NONE', #273, .T. ) ;
#284 = DIRECTION ( 'NONE',  ( -1.000000000000000000, 0.000000000000000000, 0.000000000000000000 ) ) ;
#285 = MANIFOLD_SOLID_BREP ( 'Zaoblit1', #63 ) ;
#286 = DIRECTION ( 'NONE',  ( 1.000000000000000000, 0.000000000000000000, 0.000000000000000000 ) ) ;
#287 = AXIS2_PLACEMENT_3D ( 'NONE', #99, #247, #186 ) ;
#288 = AXIS2_PLACEMENT_3D ( 'NONE', #270, #68, #141 ) ;
#289 = DIRECTION ( 'NONE',  ( 0.000000000000000000, 0.000000000000000000, 1.000000000000000000 ) ) ;
#290 = CALENDAR_DATE ( 2022, 7, 7 ) ;
#291 = APPROVAL_PERSON_ORGANIZATION ( #10, #57, #135 ) ;
#292 = DATE_AND_TIME ( #33, #125 ) ;
#293 = CIRCLE ( 'NONE', #176, 2.000000000000000000 ) ;
#294 = PERSON_AND_ORGANIZATION_ROLE ( 'creator' ) ;
#295 = ORGANIZATION ( 'NEURÈENÝ', 'NEURÈENÝ', '' ) ;
#296 = PERSON_AND_ORGANIZATION ( #278, #295 ) ;
#297 = ORIENTED_EDGE ( 'NONE', *, *, #88, .F. ) ;
#298 = DIRECTION ( 'NONE',  ( 1.224646799147353207E-16, 1.000000000000000000, -0.000000000000000000 ) ) ;
#299 = EDGE_LOOP ( 'NONE', ( #277, #73 ) ) ;
#300 = PRODUCT_DEFINITION_SHAPE ( 'NONE', 'NONE',  #193 ) ;
#301 = CYLINDRICAL_SURFACE ( 'NONE', #3, 1.100000000000000089 ) ;
#302 = ORIENTED_EDGE ( 'NONE', *, *, #304, .T. ) ;
#303 = PLANE ( 'NONE',  #274 ) ;
#304 = EDGE_CURVE ( 'NONE', #89, #275, #34, .T. ) ;
#305 = ORIENTED_EDGE ( 'NONE', *, *, #196, .T. ) ;
#306 = EDGE_LOOP ( 'NONE', ( #302, #276 ) ) ;
#307 = EDGE_LOOP ( 'NONE', ( #119, #71, #182, #246 ) ) ;
ENDSEC;
END-ISO-10303-21;
