ISO-10303-21;
HEADER;
FILE_DESCRIPTION (( 'STEP AP203' ),
    '1' );
FILE_NAME ('e923.STEP',
    '2022-07-07T10:01:57',
    ( '' ),
    ( '' ),
    'SwSTEP 2.0',
    'SolidWorks 2019',
    '' );
FILE_SCHEMA (( 'CONFIG_CONTROL_DESIGN' ));
ENDSEC;

DATA;
#1 = LINE ( 'NONE', #186, #122 ) ;
#2 = AXIS2_PLACEMENT_3D ( 'NONE', #180, #280, #176 ) ;
#3 = CARTESIAN_POINT ( 'NONE',  ( -4.000000000000000000, 0.000000000000000000, 1204.999999999999773 ) ) ;
#4 = LOCAL_TIME ( 12, 1, 57.00000000000000000, #298 ) ;
#5 = PLANE ( 'NONE',  #114 ) ;
#6 = ADVANCED_FACE ( 'NONE', ( #111 ), #300, .T. ) ;
#7 = DATE_TIME_ROLE ( 'classification_date' ) ;
#8 = COORDINATED_UNIVERSAL_TIME_OFFSET ( 1, 0, .AHEAD. ) ;
#9 = CALENDAR_DATE ( 2022, 7, 7 ) ;
#10 = AXIS2_PLACEMENT_3D ( 'NONE', #285, #24, #206 ) ;
#11 = VERTEX_POINT ( 'NONE', #202 ) ;
#12 = DATE_AND_TIME ( #9, #53 ) ;
#13 = EDGE_LOOP ( 'NONE', ( #42, #31 ) ) ;
#14 = APPROVAL_DATE_TIME ( #268, #26 ) ;
#15 = EDGE_CURVE ( 'NONE', #279, #17, #284, .T. ) ;
#16 = ORIENTED_EDGE ( 'NONE', *, *, #41, .F. ) ;
#17 = VERTEX_POINT ( 'NONE', #153 ) ;
#18 = ORIENTED_EDGE ( 'NONE', *, *, #248, .T. ) ;
#19 = CARTESIAN_POINT ( 'NONE',  ( 0.000000000000000000, 0.000000000000000000, 5.200000000000093436 ) ) ;
#20 = FACE_BOUND ( 'NONE', #179, .T. ) ;
#21 = TOROIDAL_SURFACE ( 'NONE', #230, 4.200000000000000178, 0.2000000000000000111 ) ;
#22 = DIRECTION ( 'NONE',  ( 1.000000000000000000, 0.000000000000000000, 0.000000000000000000 ) ) ;
#23 = LINE ( 'NONE', #3, #127 ) ;
#24 = DIRECTION ( 'NONE',  ( 0.000000000000000000, 0.000000000000000000, 1.000000000000000000 ) ) ;
#25 = AXIS2_PLACEMENT_3D ( 'NONE', #274, #155, #45 ) ;
#26 = APPROVAL ( #124, 'NEURÈENÝ' ) ;
#27 = CYLINDRICAL_SURFACE ( 'NONE', #232, 4.000000000000000000 ) ;
#28 = CIRCLE ( 'NONE', #198, 4.200000000000000178 ) ;
#29 = CALENDAR_DATE ( 2022, 7, 7 ) ;
#30 = DATE_AND_TIME ( #29, #173 ) ;
#31 = ORIENTED_EDGE ( 'NONE', *, *, #55, .T. ) ;
#32 = CIRCLE ( 'NONE', #213, 0.1999999999999996503 ) ;
#33 = PERSON_AND_ORGANIZATION ( #260, #76 ) ;
#34 = CIRCLE ( 'NONE', #188, 4.000000000000000000 ) ;
#35 = ADVANCED_FACE ( 'NONE', ( #158 ), #277, .F. ) ;
#36 = ORIENTED_EDGE ( 'NONE', *, *, #58, .T. ) ;
#37 = UNCERTAINTY_MEASURE_WITH_UNIT (LENGTH_MEASURE( 1.000000000000000082E-05 ), #79, 'distance_accuracy_value', 'NONE');
#38 = DIRECTION ( 'NONE',  ( -1.000000000000000000, 1.224646799147353454E-16, 0.000000000000000000 ) ) ;
#39 = AXIS2_PLACEMENT_3D ( 'NONE', #90, #73, #143 ) ;
#40 = DIRECTION ( 'NONE',  ( 0.000000000000000000, 0.000000000000000000, 1.000000000000000000 ) ) ;
#41 = EDGE_CURVE ( 'NONE', #104, #250, #295, .T. ) ;
#42 = ORIENTED_EDGE ( 'NONE', *, *, #287, .T. ) ;
#43 = DIRECTION ( 'NONE',  ( 0.000000000000000000, 0.000000000000000000, 1.000000000000000000 ) ) ;
#44 = APPROVAL ( #238, 'NEURÈENÝ' ) ;
#45 = DIRECTION ( 'NONE',  ( 1.000000000000000000, 0.000000000000000000, 0.000000000000000000 ) ) ;
#46 = CIRCLE ( 'NONE', #161, 7.000000000000000000 ) ;
#47 = CARTESIAN_POINT ( 'NONE',  ( -4.200000000000000178, 5.143516556418882928E-16, 5.000000000000047073 ) ) ;
#48 = DIRECTION ( 'NONE',  ( 1.000000000000000000, 0.000000000000000000, 0.000000000000000000 ) ) ;
#49 = DIRECTION ( 'NONE',  ( 0.000000000000000000, 0.000000000000000000, 1.000000000000000000 ) ) ;
#50 = APPLICATION_CONTEXT ( 'configuration controlled 3d designs of mechanical parts and assemblies' ) ;
#51 = CARTESIAN_POINT ( 'NONE',  ( 4.000000000000000000, 4.898587196589412829E-16, 1204.999999999999773 ) ) ;
#52 = DIRECTION ( 'NONE',  ( -0.000000000000000000, -0.000000000000000000, -1.000000000000000000 ) ) ;
#53 = LOCAL_TIME ( 12, 1, 57.00000000000000000, #169 ) ;
#54 = PERSON_AND_ORGANIZATION_ROLE ( 'creator' ) ;
#55 = EDGE_CURVE ( 'NONE', #175, #301, #46, .T. ) ;
#56 = PERSON_AND_ORGANIZATION_ROLE ( 'design_owner' ) ;
#57 = ORIENTED_EDGE ( 'NONE', *, *, #253, .F. ) ;
#58 = EDGE_CURVE ( 'NONE', #17, #279, #221, .T. ) ;
#59 = EDGE_LOOP ( 'NONE', ( #222, #108, #254, #16 ) ) ;
#60 = DIRECTION ( 'NONE',  ( -0.000000000000000000, -0.000000000000000000, -1.000000000000000000 ) ) ;
#61 = ORIENTED_EDGE ( 'NONE', *, *, #185, .F. ) ;
#62 = ADVANCED_FACE ( 'NONE', ( #115 ), #305, .T. ) ;
#63 = ORIENTED_EDGE ( 'NONE', *, *, #287, .F. ) ;
#64 = DESIGN_CONTEXT ( 'detailed design', #50, 'design' ) ;
#65 = TOROIDAL_SURFACE ( 'NONE', #239, 4.200000000000000178, 0.2000000000000000111 ) ;
#66 = FACE_OUTER_BOUND ( 'NONE', #13, .T. ) ;
#67 = VECTOR ( 'NONE', #209, 1000.000000000000000 ) ;
#68 = DIRECTION ( 'NONE',  ( 1.000000000000000000, 0.000000000000000000, 0.000000000000000000 ) ) ;
#69 = CYLINDRICAL_SURFACE ( 'NONE', #70, 7.000000000000000000 ) ;
#70 = AXIS2_PLACEMENT_3D ( 'NONE', #184, #165, #283 ) ;
#71 = CARTESIAN_POINT ( 'NONE',  ( 0.000000000000000000, 0.000000000000000000, 1204.999999999999773 ) ) ;
#72 = ADVANCED_FACE ( 'NONE', ( #281 ), #21, .F. ) ;
#73 = DIRECTION ( 'NONE',  ( 0.000000000000000000, -1.000000000000000000, 0.000000000000000000 ) ) ;
#74 = APPROVAL_ROLE ( '' ) ;
#75 = VERTEX_POINT ( 'NONE', #251 ) ;
#76 = ORGANIZATION ( 'NEURÈENÝ', 'NEURÈENÝ', '' ) ;
#77 = EDGE_LOOP ( 'NONE', ( #215, #113, #290, #156 ) ) ;
#78 = EDGE_CURVE ( 'NONE', #279, #104, #32, .T. ) ;
#79 =( LENGTH_UNIT ( ) NAMED_UNIT ( * ) SI_UNIT ( .MILLI., .METRE. ) );
#80 = CC_DESIGN_PERSON_AND_ORGANIZATION_ASSIGNMENT ( #144, #103, ( #118 ) ) ;
#81 = CC_DESIGN_APPROVAL ( #26, ( #118 ) ) ;
#82 = ORIENTED_EDGE ( 'NONE', *, *, #272, .T. ) ;
#83 = DIRECTION ( 'NONE',  ( 1.000000000000000000, 0.000000000000000000, -0.000000000000000000 ) ) ;
#84 = EDGE_LOOP ( 'NONE', ( #204, #57 ) ) ;
#85 = AXIS2_PLACEMENT_3D ( 'NONE', #71, #208, #48 ) ;
#86 = DIRECTION ( 'NONE',  ( -1.000000000000000000, 0.000000000000000000, 0.000000000000000000 ) ) ;
#87 = AXIS2_PLACEMENT_3D ( 'NONE', #19, #199, #252 ) ;
#88 = DIRECTION ( 'NONE',  ( 1.000000000000000000, 0.000000000000000000, -0.000000000000000000 ) ) ;
#89 = EDGE_CURVE ( 'NONE', #242, #17, #130, .T. ) ;
#90 = CARTESIAN_POINT ( 'NONE',  ( 4.200000000000000178, 0.000000000000000000, 5.200000000000093436 ) ) ;
#91 = CARTESIAN_POINT ( 'NONE',  ( 7.000000000000000000, 8.572527594031473190E-16, 5.000000000000000000 ) ) ;
#92 = CC_DESIGN_PERSON_AND_ORGANIZATION_ASSIGNMENT ( #218, #267, ( #225 ) ) ;
#93 = EDGE_CURVE ( 'NONE', #75, #216, #145, .T. ) ;
#94 = CARTESIAN_POINT ( 'NONE',  ( 0.000000000000000000, 0.000000000000000000, 0.000000000000000000 ) ) ;
#95 = DIRECTION ( 'NONE',  ( -0.000000000000000000, -0.000000000000000000, -1.000000000000000000 ) ) ;
#96 = PRODUCT_DEFINITION_FORMATION_WITH_SPECIFIED_SOURCE ( 'LIBOVOLNÝ', '', #136, .NOT_KNOWN. ) ;
#97 = FACE_OUTER_BOUND ( 'NONE', #77, .T. ) ;
#98 = APPROVAL ( #289, 'NEURÈENÝ' ) ;
#99 = APPROVAL_ROLE ( '' ) ;
#100 = CALENDAR_DATE ( 2022, 7, 7 ) ;
#101 = ORIENTED_EDGE ( 'NONE', *, *, #93, .T. ) ;
#102 = AXIS2_PLACEMENT_3D ( 'NONE', #142, #237, #121 ) ;
#103 = PERSON_AND_ORGANIZATION_ROLE ( 'classification_officer' ) ;
#104 = VERTEX_POINT ( 'NONE', #47 ) ;
#105 = PERSON_AND_ORGANIZATION ( #260, #76 ) ;
#106 = ORIENTED_EDGE ( 'NONE', *, *, #15, .F. ) ;
#107 =( NAMED_UNIT ( * ) PLANE_ANGLE_UNIT ( ) SI_UNIT ( $, .RADIAN. ) );
#108 = ORIENTED_EDGE ( 'NONE', *, *, #58, .F. ) ;
#109 = VECTOR ( 'NONE', #266, 1000.000000000000000 ) ;
#110 = CARTESIAN_POINT ( 'NONE',  ( 0.000000000000000000, 0.000000000000000000, 1204.999999999999773 ) ) ;
#111 = FACE_OUTER_BOUND ( 'NONE', #195, .T. ) ;
#112 = EDGE_LOOP ( 'NONE', ( #223, #126, #36, #61 ) ) ;
#113 = ORIENTED_EDGE ( 'NONE', *, *, #154, .T. ) ;
#114 = AXIS2_PLACEMENT_3D ( 'NONE', #189, #259, #282 ) ;
#115 = FACE_OUTER_BOUND ( 'NONE', #150, .T. ) ;
#116 = DIRECTION ( 'NONE',  ( -0.000000000000000000, -0.000000000000000000, -1.000000000000000000 ) ) ;
#117 = DIRECTION ( 'NONE',  ( 1.000000000000000000, 0.000000000000000000, 0.000000000000000000 ) ) ;
#118 = SECURITY_CLASSIFICATION ( '', '', #220 ) ;
#119 = CARTESIAN_POINT ( 'NONE',  ( 7.000000000000000000, 8.572527594031473190E-16, 5.000000000000000000 ) ) ;
#120 = LINE ( 'NONE', #91, #109 ) ;
#121 = DIRECTION ( 'NONE',  ( -1.000000000000000000, 0.000000000000000000, 0.000000000000000000 ) ) ;
#122 = VECTOR ( 'NONE', #52, 1000.000000000000000 ) ;
#123 = APPLICATION_PROTOCOL_DEFINITION ( 'international standard', 'config_control_design', 1994, #263 ) ;
#124 = APPROVAL_STATUS ( 'not_yet_approved' ) ;
#125 = ORIENTED_EDGE ( 'NONE', *, *, #201, .F. ) ;
#126 = ORIENTED_EDGE ( 'NONE', *, *, #89, .T. ) ;
#127 = VECTOR ( 'NONE', #116, 1000.000000000000000 ) ;
#128 = COORDINATED_UNIVERSAL_TIME_OFFSET ( 1, 0, .AHEAD. ) ;
#129 = AXIS2_PLACEMENT_3D ( 'NONE', #110, #40, #88 ) ;
#130 = LINE ( 'NONE', #224, #67 ) ;
#131 = CARTESIAN_POINT ( 'NONE',  ( -4.200000000000000178, 5.143516556418882928E-16, 5.200000000000093436 ) ) ;
#132 = ADVANCED_FACE ( 'NONE', ( #307 ), #65, .F. ) ;
#133 = ORIENTED_EDGE ( 'NONE', *, *, #41, .T. ) ;
#134 = ORIENTED_EDGE ( 'NONE', *, *, #294, .T. ) ;
#135 = AXIS2_PLACEMENT_3D ( 'NONE', #286, #231, #117 ) ;
#136 = PRODUCT ( 'e923', 'e923', '', ( #244 ) ) ;
#137 = DIRECTION ( 'NONE',  ( 0.000000000000000000, 0.000000000000000000, 1.000000000000000000 ) ) ;
#138 = CARTESIAN_POINT ( 'NONE',  ( 0.000000000000000000, 0.000000000000000000, 5.200000000000093436 ) ) ;
#139 = CARTESIAN_POINT ( 'NONE',  ( 4.200000000000000178, 0.000000000000000000, 5.000000000000047073 ) ) ;
#140 = DIRECTION ( 'NONE',  ( 0.000000000000000000, 0.000000000000000000, 1.000000000000000000 ) ) ;
#141 = CC_DESIGN_PERSON_AND_ORGANIZATION_ASSIGNMENT ( #194, #56, ( #136 ) ) ;
#142 = CARTESIAN_POINT ( 'NONE',  ( 0.000000000000000000, 0.000000000000000000, 1204.999999999999773 ) ) ;
#143 = DIRECTION ( 'NONE',  ( 0.000000000000000000, 0.000000000000000000, -1.000000000000000000 ) ) ;
#144 = PERSON_AND_ORGANIZATION ( #260, #76 ) ;
#145 = CIRCLE ( 'NONE', #296, 7.000000000000000000 ) ;
#146 = CC_DESIGN_DATE_AND_TIME_ASSIGNMENT ( #291, #174, ( #225 ) ) ;
#147 = ORIENTED_EDGE ( 'NONE', *, *, #15, .T. ) ;
#148 = DIRECTION ( 'NONE',  ( 0.000000000000000000, 0.000000000000000000, 1.000000000000000000 ) ) ;
#149 = PERSON_AND_ORGANIZATION ( #260, #76 ) ;
#150 = EDGE_LOOP ( 'NONE', ( #134, #18 ) ) ;
#151 = SHAPE_DEFINITION_REPRESENTATION ( #258, #275 ) ;
#152 = ORIENTED_EDGE ( 'NONE', *, *, #197, .T. ) ;
#153 = CARTESIAN_POINT ( 'NONE',  ( 4.000000000000000000, 4.898587196589412829E-16, 5.200000000000093436 ) ) ;
#154 = EDGE_CURVE ( 'NONE', #175, #216, #120, .T. ) ;
#155 = DIRECTION ( 'NONE',  ( -0.000000000000000000, -0.000000000000000000, -1.000000000000000000 ) ) ;
#156 = ORIENTED_EDGE ( 'NONE', *, *, #197, .F. ) ;
#157 = ADVANCED_FACE ( 'NONE', ( #97 ), #69, .T. ) ;
#158 = FACE_OUTER_BOUND ( 'NONE', #84, .T. ) ;
#159 = DIRECTION ( 'NONE',  ( 1.224646799147353207E-16, 1.000000000000000000, -0.000000000000000000 ) ) ;
#160 = DIRECTION ( 'NONE',  ( 1.000000000000000000, 0.000000000000000000, 0.000000000000000000 ) ) ;
#161 = AXIS2_PLACEMENT_3D ( 'NONE', #177, #228, #302 ) ;
#162 = DIRECTION ( 'NONE',  ( -0.000000000000000000, -0.000000000000000000, -1.000000000000000000 ) ) ;
#163 = FACE_OUTER_BOUND ( 'NONE', #112, .T. ) ;
#164 = CC_DESIGN_APPROVAL ( #44, ( #96 ) ) ;
#165 = DIRECTION ( 'NONE',  ( -0.000000000000000000, -0.000000000000000000, -1.000000000000000000 ) ) ;
#166 = CARTESIAN_POINT ( 'NONE',  ( 0.000000000000000000, 0.000000000000000000, 5.000000000000000000 ) ) ;
#167 = DIRECTION ( 'NONE',  ( 1.000000000000000000, 0.000000000000000000, 0.000000000000000000 ) ) ;
#168 = CIRCLE ( 'NONE', #135, 7.000000000000000000 ) ;
#169 = COORDINATED_UNIVERSAL_TIME_OFFSET ( 1, 0, .AHEAD. ) ;
#170 =( NAMED_UNIT ( * ) SI_UNIT ( $, .STERADIAN. ) SOLID_ANGLE_UNIT ( ) );
#171 = CALENDAR_DATE ( 2022, 7, 7 ) ;
#172 = ORIENTED_EDGE ( 'NONE', *, *, #154, .F. ) ;
#173 = LOCAL_TIME ( 12, 1, 57.00000000000000000, #128 ) ;
#174 = DATE_TIME_ROLE ( 'creation_date' ) ;
#175 = VERTEX_POINT ( 'NONE', #119 ) ;
#176 = DIRECTION ( 'NONE',  ( 1.000000000000000000, 0.000000000000000000, 0.000000000000000000 ) ) ;
#177 = CARTESIAN_POINT ( 'NONE',  ( 0.000000000000000000, 0.000000000000000000, 5.000000000000000000 ) ) ;
#178 = CC_DESIGN_APPROVAL ( #98, ( #225 ) ) ;
#179 = EDGE_LOOP ( 'NONE', ( #82, #133 ) ) ;
#180 = CARTESIAN_POINT ( 'NONE',  ( 0.000000000000000000, 0.000000000000000000, 5.200000000000093436 ) ) ;
#181 = ORIENTED_EDGE ( 'NONE', *, *, #272, .F. ) ;
#182 = CC_DESIGN_PERSON_AND_ORGANIZATION_ASSIGNMENT ( #105, #247, ( #96 ) ) ;
#183 = DIRECTION ( 'NONE',  ( 0.000000000000000000, 0.000000000000000000, 1.000000000000000000 ) ) ;
#184 = CARTESIAN_POINT ( 'NONE',  ( 0.000000000000000000, 0.000000000000000000, 5.000000000000000000 ) ) ;
#185 = EDGE_CURVE ( 'NONE', #11, #279, #23, .T. ) ;
#186 = CARTESIAN_POINT ( 'NONE',  ( -7.000000000000000000, 0.000000000000000000, 5.000000000000000000 ) ) ;
#187 = CARTESIAN_POINT ( 'NONE',  ( -4.000000000000000000, 0.000000000000000000, 5.200000000000093436 ) ) ;
#188 = AXIS2_PLACEMENT_3D ( 'NONE', #211, #183, #68 ) ;
#189 = CARTESIAN_POINT ( 'NONE',  ( 0.000000000000000000, 0.000000000000000000, 5.000000000000000000 ) ) ;
#190 = COORDINATED_UNIVERSAL_TIME_OFFSET ( 1, 0, .AHEAD. ) ;
#191 = APPROVAL_DATE_TIME ( #196, #98 ) ;
#192 = EDGE_LOOP ( 'NONE', ( #226, #270, #255, #147 ) ) ;
#193 = PERSON_AND_ORGANIZATION ( #260, #76 ) ;
#194 = PERSON_AND_ORGANIZATION ( #260, #76 ) ;
#195 = EDGE_LOOP ( 'NONE', ( #172, #63, #152, #101 ) ) ;
#196 = DATE_AND_TIME ( #171, #240 ) ;
#197 = EDGE_CURVE ( 'NONE', #301, #75, #1, .T. ) ;
#198 = AXIS2_PLACEMENT_3D ( 'NONE', #166, #162, #22 ) ;
#199 = DIRECTION ( 'NONE',  ( 0.000000000000000000, 0.000000000000000000, 1.000000000000000000 ) ) ;
#200 = CARTESIAN_POINT ( 'NONE',  ( 0.000000000000000000, 0.000000000000000000, 0.000000000000000000 ) ) ;
#201 = EDGE_CURVE ( 'NONE', #17, #250, #227, .T. ) ;
#202 = CARTESIAN_POINT ( 'NONE',  ( -4.000000000000000000, 0.000000000000000000, 1204.999999999999773 ) ) ;
#203 = APPROVAL_PERSON_ORGANIZATION ( #33, #98, #293 ) ;
#204 = ORIENTED_EDGE ( 'NONE', *, *, #93, .F. ) ;
#205 = ORIENTED_EDGE ( 'NONE', *, *, #78, .T. ) ;
#206 = DIRECTION ( 'NONE',  ( 1.000000000000000000, 0.000000000000000000, 0.000000000000000000 ) ) ;
#207 =( GEOMETRIC_REPRESENTATION_CONTEXT ( 3 ) GLOBAL_UNCERTAINTY_ASSIGNED_CONTEXT ( ( #37 ) ) GLOBAL_UNIT_ASSIGNED_CONTEXT ( ( #79, #107, #170 ) ) REPRESENTATION_CONTEXT ( 'NONE', 'WORKASPACE' ) );
#208 = DIRECTION ( 'NONE',  ( 0.000000000000000000, 0.000000000000000000, 1.000000000000000000 ) ) ;
#209 = DIRECTION ( 'NONE',  ( -0.000000000000000000, -0.000000000000000000, -1.000000000000000000 ) ) ;
#210 = CARTESIAN_POINT ( 'NONE',  ( 7.000000000000000000, 8.572527594031473190E-16, 0.000000000000000000 ) ) ;
#211 = CARTESIAN_POINT ( 'NONE',  ( 0.000000000000000000, 0.000000000000000000, 1204.999999999999773 ) ) ;
#212 = LOCAL_TIME ( 12, 1, 57.00000000000000000, #190 ) ;
#213 = AXIS2_PLACEMENT_3D ( 'NONE', #131, #159, #38 ) ;
#214 = CARTESIAN_POINT ( 'NONE',  ( 0.000000000000000000, 0.000000000000000000, 0.000000000000000000 ) ) ;
#215 = ORIENTED_EDGE ( 'NONE', *, *, #55, .F. ) ;
#216 = VERTEX_POINT ( 'NONE', #210 ) ;
#217 = ADVANCED_FACE ( 'NONE', ( #264 ), #27, .T. ) ;
#218 = PERSON_AND_ORGANIZATION ( #260, #76 ) ;
#219 = CC_DESIGN_DATE_AND_TIME_ASSIGNMENT ( #30, #7, ( #118 ) ) ;
#220 = SECURITY_CLASSIFICATION_LEVEL ( 'unclassified' ) ;
#221 = CIRCLE ( 'NONE', #87, 4.000000000000000000 ) ;
#222 = ORIENTED_EDGE ( 'NONE', *, *, #78, .F. ) ;
#223 = ORIENTED_EDGE ( 'NONE', *, *, #248, .F. ) ;
#224 = CARTESIAN_POINT ( 'NONE',  ( 4.000000000000000000, 4.898587196589412829E-16, 1204.999999999999773 ) ) ;
#225 = PRODUCT_DEFINITION ( 'NEZNÁMÝ', '', #96, #64 ) ;
#226 = ORIENTED_EDGE ( 'NONE', *, *, #89, .F. ) ;
#227 = CIRCLE ( 'NONE', #39, 0.1999999999999996503 ) ;
#228 = DIRECTION ( 'NONE',  ( 0.000000000000000000, 0.000000000000000000, 1.000000000000000000 ) ) ;
#229 = DIRECTION ( 'NONE',  ( 1.000000000000000000, 0.000000000000000000, 0.000000000000000000 ) ) ;
#230 = AXIS2_PLACEMENT_3D ( 'NONE', #257, #137, #229 ) ;
#231 = DIRECTION ( 'NONE',  ( 0.000000000000000000, 0.000000000000000000, 1.000000000000000000 ) ) ;
#232 = AXIS2_PLACEMENT_3D ( 'NONE', #236, #95, #261 ) ;
#233 = CARTESIAN_POINT ( 'NONE',  ( -7.000000000000000000, 0.000000000000000000, 5.000000000000000000 ) ) ;
#234 = MANIFOLD_SOLID_BREP ( 'Zaoblit1', #288 ) ;
#235 = PRODUCT_RELATED_PRODUCT_CATEGORY ( 'detail', '', ( #136 ) ) ;
#236 = CARTESIAN_POINT ( 'NONE',  ( 0.000000000000000000, 0.000000000000000000, 1204.999999999999773 ) ) ;
#237 = DIRECTION ( 'NONE',  ( -0.000000000000000000, -0.000000000000000000, -1.000000000000000000 ) ) ;
#238 = APPROVAL_STATUS ( 'not_yet_approved' ) ;
#239 = AXIS2_PLACEMENT_3D ( 'NONE', #138, #140, #160 ) ;
#240 = LOCAL_TIME ( 12, 1, 57.00000000000000000, #8 ) ;
#241 = CALENDAR_DATE ( 2022, 7, 7 ) ;
#242 = VERTEX_POINT ( 'NONE', #51 ) ;
#243 = ADVANCED_FACE ( 'NONE', ( #163 ), #262, .T. ) ;
#244 = MECHANICAL_CONTEXT ( 'NONE', #263, 'mechanical' ) ;
#245 = EDGE_LOOP ( 'NONE', ( #106, #205, #181, #125 ) ) ;
#246 = AXIS2_PLACEMENT_3D ( 'NONE', #214, #148, #167 ) ;
#247 = PERSON_AND_ORGANIZATION_ROLE ( 'design_supplier' ) ;
#248 = EDGE_CURVE ( 'NONE', #242, #11, #34, .T. ) ;
#249 = AXIS2_PLACEMENT_3D ( 'NONE', #304, #60, #86 ) ;
#250 = VERTEX_POINT ( 'NONE', #139 ) ;
#251 = CARTESIAN_POINT ( 'NONE',  ( -7.000000000000000000, 0.000000000000000000, 0.000000000000000000 ) ) ;
#252 = DIRECTION ( 'NONE',  ( 1.000000000000000000, 0.000000000000000000, 0.000000000000000000 ) ) ;
#253 = EDGE_CURVE ( 'NONE', #216, #75, #271, .T. ) ;
#254 = ORIENTED_EDGE ( 'NONE', *, *, #201, .T. ) ;
#255 = ORIENTED_EDGE ( 'NONE', *, *, #185, .T. ) ;
#256 = CC_DESIGN_SECURITY_CLASSIFICATION ( #118, ( #96 ) ) ;
#257 = CARTESIAN_POINT ( 'NONE',  ( 0.000000000000000000, 0.000000000000000000, 5.200000000000093436 ) ) ;
#258 = PRODUCT_DEFINITION_SHAPE ( 'NONE', 'NONE',  #225 ) ;
#259 = DIRECTION ( 'NONE',  ( 0.000000000000000000, 0.000000000000000000, 1.000000000000000000 ) ) ;
#260 = PERSON ( 'NEURÈENÝ', 'NEURÈENÝ', 'NEURÈENÝ', ('NEURÈENÝ'), ('NEURÈENÝ'), ('NEURÈENÝ') ) ;
#261 = DIRECTION ( 'NONE',  ( -1.000000000000000000, 0.000000000000000000, 0.000000000000000000 ) ) ;
#262 = CYLINDRICAL_SURFACE ( 'NONE', #102, 4.000000000000000000 ) ;
#263 = APPLICATION_CONTEXT ( 'configuration controlled 3d designs of mechanical parts and assemblies' ) ;
#264 = FACE_OUTER_BOUND ( 'NONE', #192, .T. ) ;
#265 = AXIS2_PLACEMENT_3D ( 'NONE', #200, #43, #83 ) ;
#266 = DIRECTION ( 'NONE',  ( -0.000000000000000000, -0.000000000000000000, -1.000000000000000000 ) ) ;
#267 = PERSON_AND_ORGANIZATION_ROLE ( 'creator' ) ;
#268 = DATE_AND_TIME ( #100, #212 ) ;
#269 = APPROVAL_DATE_TIME ( #12, #44 ) ;
#270 = ORIENTED_EDGE ( 'NONE', *, *, #294, .F. ) ;
#271 = CIRCLE ( 'NONE', #10, 7.000000000000000000 ) ;
#272 = EDGE_CURVE ( 'NONE', #250, #104, #28, .T. ) ;
#273 = PERSON_AND_ORGANIZATION ( #260, #76 ) ;
#274 = CARTESIAN_POINT ( 'NONE',  ( 0.000000000000000000, 0.000000000000000000, 5.000000000000000000 ) ) ;
#275 = ADVANCED_BREP_SHAPE_REPRESENTATION ( 'e923', ( #234, #246 ), #207 ) ;
#276 = ADVANCED_FACE ( 'NONE', ( #20, #66 ), #5, .T. ) ;
#277 = PLANE ( 'NONE',  #265 ) ;
#278 = APPROVAL_PERSON_ORGANIZATION ( #193, #26, #99 ) ;
#279 = VERTEX_POINT ( 'NONE', #187 ) ;
#280 = DIRECTION ( 'NONE',  ( 0.000000000000000000, 0.000000000000000000, 1.000000000000000000 ) ) ;
#281 = FACE_OUTER_BOUND ( 'NONE', #59, .T. ) ;
#282 = DIRECTION ( 'NONE',  ( 1.000000000000000000, 0.000000000000000000, -0.000000000000000000 ) ) ;
#283 = DIRECTION ( 'NONE',  ( -1.000000000000000000, 0.000000000000000000, 0.000000000000000000 ) ) ;
#284 = CIRCLE ( 'NONE', #2, 4.000000000000000000 ) ;
#285 = CARTESIAN_POINT ( 'NONE',  ( 0.000000000000000000, 0.000000000000000000, 0.000000000000000000 ) ) ;
#286 = CARTESIAN_POINT ( 'NONE',  ( 0.000000000000000000, 0.000000000000000000, 5.000000000000000000 ) ) ;
#287 = EDGE_CURVE ( 'NONE', #301, #175, #168, .T. ) ;
#288 = CLOSED_SHELL ( 'NONE', ( #132, #243, #157, #6, #276, #35, #217, #62, #72 ) ) ;
#289 = APPROVAL_STATUS ( 'not_yet_approved' ) ;
#290 = ORIENTED_EDGE ( 'NONE', *, *, #253, .T. ) ;
#291 = DATE_AND_TIME ( #241, #4 ) ;
#292 = CIRCLE ( 'NONE', #85, 4.000000000000000000 ) ;
#293 = APPROVAL_ROLE ( '' ) ;
#294 = EDGE_CURVE ( 'NONE', #11, #242, #292, .T. ) ;
#295 = CIRCLE ( 'NONE', #25, 4.200000000000000178 ) ;
#296 = AXIS2_PLACEMENT_3D ( 'NONE', #94, #49, #306 ) ;
#297 = APPLICATION_PROTOCOL_DEFINITION ( 'international standard', 'config_control_design', 1994, #50 ) ;
#298 = COORDINATED_UNIVERSAL_TIME_OFFSET ( 1, 0, .AHEAD. ) ;
#299 = CC_DESIGN_PERSON_AND_ORGANIZATION_ASSIGNMENT ( #149, #54, ( #96 ) ) ;
#300 = CYLINDRICAL_SURFACE ( 'NONE', #249, 7.000000000000000000 ) ;
#301 = VERTEX_POINT ( 'NONE', #233 ) ;
#302 = DIRECTION ( 'NONE',  ( 1.000000000000000000, 0.000000000000000000, 0.000000000000000000 ) ) ;
#303 = APPROVAL_PERSON_ORGANIZATION ( #273, #44, #74 ) ;
#304 = CARTESIAN_POINT ( 'NONE',  ( 0.000000000000000000, 0.000000000000000000, 5.000000000000000000 ) ) ;
#305 = PLANE ( 'NONE',  #129 ) ;
#306 = DIRECTION ( 'NONE',  ( 1.000000000000000000, 0.000000000000000000, 0.000000000000000000 ) ) ;
#307 = FACE_OUTER_BOUND ( 'NONE', #245, .T. ) ;
ENDSEC;
END-ISO-10303-21;
