ISO-10303-21;
HEADER;
FILE_DESCRIPTION (( 'STEP AP203' ),
    '1' );
FILE_NAME ('add3.STEP',
    '2023-02-12T10:28:33',
    ( '' ),
    ( '' ),
    'SwSTEP 2.0',
    'SolidWorks 2019',
    '' );
FILE_SCHEMA (( 'CONFIG_CONTROL_DESIGN' ));
ENDSEC;

DATA;
#1 = APPROVAL_STATUS ( 'not_yet_approved' ) ;
#2 = VECTOR ( 'NONE', #30, 1000.000000000000000 ) ;
#3 = COORDINATED_UNIVERSAL_TIME_OFFSET ( 1, 0, .AHEAD. ) ;
#4 = CARTESIAN_POINT ( 'NONE',  ( 0.000000000000000000, 0.000000000000000000, 10.00000000000000000 ) ) ;
#5 = AXIS2_PLACEMENT_3D ( 'NONE', #67, #47, #207 ) ;
#6 = CALENDAR_DATE ( 2023, 12, 2 ) ;
#7 = VERTEX_POINT ( 'NONE', #255 ) ;
#8 = DIRECTION ( 'NONE',  ( 0.000000000000000000, 0.000000000000000000, 1.000000000000000000 ) ) ;
#9 = ORIENTED_EDGE ( 'NONE', *, *, #130, .F. ) ;
#10 = CARTESIAN_POINT ( 'NONE',  ( -16.00000000000000000, 0.000000000000000000, 0.000000000000000000 ) ) ;
#11 = CIRCLE ( 'NONE', #154, 12.50000000000000000 ) ;
#12 = DIRECTION ( 'NONE',  ( -1.000000000000000000, 0.000000000000000000, 0.000000000000000000 ) ) ;
#13 = LINE ( 'NONE', #213, #2 ) ;
#14 = CYLINDRICAL_SURFACE ( 'NONE', #16, 16.00000000000000000 ) ;
#15 = APPROVAL_STATUS ( 'not_yet_approved' ) ;
#16 = AXIS2_PLACEMENT_3D ( 'NONE', #170, #151, #55 ) ;
#17 = DIRECTION ( 'NONE',  ( -1.000000000000000000, 0.000000000000000000, 0.000000000000000000 ) ) ;
#18 = PERSON_AND_ORGANIZATION ( #232, #59 ) ;
#19 = EDGE_LOOP ( 'NONE', ( #206, #244 ) ) ;
#20 = CARTESIAN_POINT ( 'NONE',  ( 0.000000000000000000, 0.000000000000000000, 0.000000000000000000 ) ) ;
#21 = CIRCLE ( 'NONE', #5, 16.00000000000000000 ) ;
#22 = VERTEX_POINT ( 'NONE', #242 ) ;
#23 = EDGE_LOOP ( 'NONE', ( #117, #142, #88, #91 ) ) ;
#24 = VECTOR ( 'NONE', #139, 1000.000000000000000 ) ;
#25 = LINE ( 'NONE', #195, #68 ) ;
#26 = DIRECTION ( 'NONE',  ( 1.000000000000000000, 0.000000000000000000, 0.000000000000000000 ) ) ;
#27 = CIRCLE ( 'NONE', #182, 12.50000000000000000 ) ;
#28 = CARTESIAN_POINT ( 'NONE',  ( 0.000000000000000000, 0.000000000000000000, 10.00000000000000000 ) ) ;
#29 = EDGE_CURVE ( 'NONE', #202, #22, #84, .T. ) ;
#30 = DIRECTION ( 'NONE',  ( -0.000000000000000000, -0.000000000000000000, -1.000000000000000000 ) ) ;
#31 = DESIGN_CONTEXT ( 'detailed design', #36, 'design' ) ;
#32 = DIRECTION ( 'NONE',  ( -1.000000000000000000, 0.000000000000000000, 0.000000000000000000 ) ) ;
#33 = ADVANCED_FACE ( 'NONE', ( #236, #218 ), #240, .T. ) ;
#34 = LOCAL_TIME ( 11, 28, 33.00000000000000000, #3 ) ;
#35 = APPROVAL_STATUS ( 'not_yet_approved' ) ;
#36 = APPLICATION_CONTEXT ( 'configuration controlled 3d designs of mechanical parts and assemblies' ) ;
#37 = PERSON_AND_ORGANIZATION_ROLE ( 'classification_officer' ) ;
#38 = VERTEX_POINT ( 'NONE', #45 ) ;
#39 = PERSON_AND_ORGANIZATION ( #232, #59 ) ;
#40 = DATE_AND_TIME ( #237, #225 ) ;
#41 = PRODUCT_DEFINITION ( 'NEZNÁMÝ', '', #163, #31 ) ;
#42 = CALENDAR_DATE ( 2023, 12, 2 ) ;
#43 = CIRCLE ( 'NONE', #212, 16.00000000000000000 ) ;
#44 = LINE ( 'NONE', #148, #119 ) ;
#45 = CARTESIAN_POINT ( 'NONE',  ( 16.00000000000000000, 1.959434878635765131E-15, 10.00000000000000000 ) ) ;
#46 = CC_DESIGN_PERSON_AND_ORGANIZATION_ASSIGNMENT ( #18, #95, ( #163 ) ) ;
#47 = DIRECTION ( 'NONE',  ( 0.000000000000000000, 0.000000000000000000, 1.000000000000000000 ) ) ;
#48 = EDGE_LOOP ( 'NONE', ( #164, #128 ) ) ;
#49 = AXIS2_PLACEMENT_3D ( 'NONE', #70, #82, #157 ) ;
#50 = DIRECTION ( 'NONE',  ( -0.000000000000000000, -0.000000000000000000, -1.000000000000000000 ) ) ;
#51 = DIRECTION ( 'NONE',  ( -0.000000000000000000, -0.000000000000000000, -1.000000000000000000 ) ) ;
#52 = DIRECTION ( 'NONE',  ( 1.000000000000000000, 0.000000000000000000, -0.000000000000000000 ) ) ;
#53 = PLANE ( 'NONE',  #161 ) ;
#54 = APPROVAL_PERSON_ORGANIZATION ( #215, #136, #254 ) ;
#55 = DIRECTION ( 'NONE',  ( -1.000000000000000000, 0.000000000000000000, 0.000000000000000000 ) ) ;
#56 = CALENDAR_DATE ( 2023, 12, 2 ) ;
#57 = EDGE_CURVE ( 'NONE', #145, #222, #27, .T. ) ;
#58 = DATE_TIME_ROLE ( 'creation_date' ) ;
#59 = ORGANIZATION ( 'NEURÈENÝ', 'NEURÈENÝ', '' ) ;
#60 = EDGE_LOOP ( 'NONE', ( #162, #200 ) ) ;
#61 = CYLINDRICAL_SURFACE ( 'NONE', #169, 16.00000000000000000 ) ;
#62 = DIRECTION ( 'NONE',  ( -0.000000000000000000, -0.000000000000000000, -1.000000000000000000 ) ) ;
#63 = CARTESIAN_POINT ( 'NONE',  ( -12.50000000000000000, 0.000000000000000000, 500.0000000000000000 ) ) ;
#64 = CC_DESIGN_APPROVAL ( #78, ( #171 ) ) ;
#65 = DATE_AND_TIME ( #42, #34 ) ;
#66 = DIRECTION ( 'NONE',  ( 1.000000000000000000, 0.000000000000000000, -0.000000000000000000 ) ) ;
#67 = CARTESIAN_POINT ( 'NONE',  ( 0.000000000000000000, 0.000000000000000000, 0.000000000000000000 ) ) ;
#68 = VECTOR ( 'NONE', #50, 1000.000000000000000 ) ;
#69 = ORIENTED_EDGE ( 'NONE', *, *, #93, .F. ) ;
#70 = CARTESIAN_POINT ( 'NONE',  ( 0.000000000000000000, 0.000000000000000000, 500.0000000000000000 ) ) ;
#71 = EDGE_CURVE ( 'NONE', #147, #160, #21, .T. ) ;
#72 = CYLINDRICAL_SURFACE ( 'NONE', #233, 12.50000000000000000 ) ;
#73 = ORIENTED_EDGE ( 'NONE', *, *, #71, .F. ) ;
#74 = AXIS2_PLACEMENT_3D ( 'NONE', #243, #191, #52 ) ;
#75 = CC_DESIGN_PERSON_AND_ORGANIZATION_ASSIGNMENT ( #234, #158, ( #41 ) ) ;
#76 = FACE_OUTER_BOUND ( 'NONE', #23, .T. ) ;
#77 = DIRECTION ( 'NONE',  ( -0.000000000000000000, -0.000000000000000000, -1.000000000000000000 ) ) ;
#78 = APPROVAL ( #1, 'NEURÈENÝ' ) ;
#79 = PERSON_AND_ORGANIZATION_ROLE ( 'design_owner' ) ;
#80 = PERSON_AND_ORGANIZATION ( #232, #59 ) ;
#81 = CC_DESIGN_APPROVAL ( #136, ( #163 ) ) ;
#82 = DIRECTION ( 'NONE',  ( 0.000000000000000000, 0.000000000000000000, 1.000000000000000000 ) ) ;
#83 = DIRECTION ( 'NONE',  ( 1.000000000000000000, 0.000000000000000000, 0.000000000000000000 ) ) ;
#84 = CIRCLE ( 'NONE', #49, 12.50000000000000000 ) ;
#85 = AXIS2_PLACEMENT_3D ( 'NONE', #229, #8, #26 ) ;
#86 = ADVANCED_FACE ( 'NONE', ( #104 ), #53, .T. ) ;
#87 = DIRECTION ( 'NONE',  ( 0.000000000000000000, 0.000000000000000000, 1.000000000000000000 ) ) ;
#88 = ORIENTED_EDGE ( 'NONE', *, *, #57, .T. ) ;
#89 = ORIENTED_EDGE ( 'NONE', *, *, #204, .F. ) ;
#90 = CARTESIAN_POINT ( 'NONE',  ( 12.50000000000000000, 1.530808498934191521E-15, 500.0000000000000000 ) ) ;
#91 = ORIENTED_EDGE ( 'NONE', *, *, #227, .F. ) ;
#92 = DIRECTION ( 'NONE',  ( 0.000000000000000000, 0.000000000000000000, 1.000000000000000000 ) ) ;
#93 = EDGE_CURVE ( 'NONE', #7, #160, #44, .T. ) ;
#94 = COORDINATED_UNIVERSAL_TIME_OFFSET ( 1, 0, .AHEAD. ) ;
#95 = PERSON_AND_ORGANIZATION_ROLE ( 'creator' ) ;
#96 = AXIS2_PLACEMENT_3D ( 'NONE', #226, #223, #32 ) ;
#97 = CARTESIAN_POINT ( 'NONE',  ( 0.000000000000000000, 0.000000000000000000, 10.00000000000000000 ) ) ;
#98 = ADVANCED_FACE ( 'NONE', ( #135 ), #214, .T. ) ;
#99 = CC_DESIGN_SECURITY_CLASSIFICATION ( #171, ( #163 ) ) ;
#100 = PERSON_AND_ORGANIZATION ( #232, #59 ) ;
#101 = UNCERTAINTY_MEASURE_WITH_UNIT (LENGTH_MEASURE( 1.000000000000000082E-05 ), #121, 'distance_accuracy_value', 'NONE');
#102 = CARTESIAN_POINT ( 'NONE',  ( 0.000000000000000000, 0.000000000000000000, 10.00000000000000000 ) ) ;
#103 = ADVANCED_BREP_SHAPE_REPRESENTATION ( 'add3', ( #205, #189 ), #251 ) ;
#104 = FACE_OUTER_BOUND ( 'NONE', #48, .T. ) ;
#105 = ORIENTED_EDGE ( 'NONE', *, *, #204, .T. ) ;
#106 = PRODUCT ( 'add3', 'add3', '', ( #114 ) ) ;
#107 = ORIENTED_EDGE ( 'NONE', *, *, #150, .F. ) ;
#108 = CARTESIAN_POINT ( 'NONE',  ( 0.000000000000000000, 0.000000000000000000, 0.000000000000000000 ) ) ;
#109 = CIRCLE ( 'NONE', #159, 16.00000000000000000 ) ;
#110 = DIRECTION ( 'NONE',  ( 0.000000000000000000, 0.000000000000000000, 1.000000000000000000 ) ) ;
#111 = DIRECTION ( 'NONE',  ( 0.000000000000000000, 0.000000000000000000, 1.000000000000000000 ) ) ;
#112 = CARTESIAN_POINT ( 'NONE',  ( 0.000000000000000000, 0.000000000000000000, 500.0000000000000000 ) ) ;
#113 = ADVANCED_FACE ( 'NONE', ( #76 ), #72, .T. ) ;
#114 = MECHANICAL_CONTEXT ( 'NONE', #123, 'mechanical' ) ;
#115 = DATE_AND_TIME ( #56, #140 ) ;
#116 = EDGE_CURVE ( 'NONE', #22, #202, #176, .T. ) ;
#117 = ORIENTED_EDGE ( 'NONE', *, *, #29, .F. ) ;
#118 =( NAMED_UNIT ( * ) SI_UNIT ( $, .STERADIAN. ) SOLID_ANGLE_UNIT ( ) );
#119 = VECTOR ( 'NONE', #77, 1000.000000000000000 ) ;
#120 = ORIENTED_EDGE ( 'NONE', *, *, #93, .T. ) ;
#121 =( LENGTH_UNIT ( ) NAMED_UNIT ( * ) SI_UNIT ( .MILLI., .METRE. ) );
#122 = EDGE_CURVE ( 'NONE', #222, #145, #11, .T. ) ;
#123 = APPLICATION_CONTEXT ( 'configuration controlled 3d designs of mechanical parts and assemblies' ) ;
#124 = APPROVAL_ROLE ( '' ) ;
#125 = AXIS2_PLACEMENT_3D ( 'NONE', #112, #111, #166 ) ;
#126 = ORIENTED_EDGE ( 'NONE', *, *, #116, .F. ) ;
#127 = EDGE_CURVE ( 'NONE', #7, #38, #43, .T. ) ;
#128 = ORIENTED_EDGE ( 'NONE', *, *, #29, .T. ) ;
#129 = ORIENTED_EDGE ( 'NONE', *, *, #173, .F. ) ;
#130 = EDGE_CURVE ( 'NONE', #38, #7, #193, .T. ) ;
#131 = CARTESIAN_POINT ( 'NONE',  ( 0.000000000000000000, 0.000000000000000000, 10.00000000000000000 ) ) ;
#132 = LOCAL_TIME ( 11, 28, 33.00000000000000000, #201 ) ;
#133 = DIRECTION ( 'NONE',  ( 0.000000000000000000, 0.000000000000000000, 1.000000000000000000 ) ) ;
#134 = ADVANCED_FACE ( 'NONE', ( #247 ), #246, .F. ) ;
#135 = FACE_OUTER_BOUND ( 'NONE', #190, .T. ) ;
#136 = APPROVAL ( #35, 'NEURÈENÝ' ) ;
#137 = PERSON_AND_ORGANIZATION_ROLE ( 'design_supplier' ) ;
#138 = APPROVAL_ROLE ( '' ) ;
#139 = DIRECTION ( 'NONE',  ( -0.000000000000000000, -0.000000000000000000, -1.000000000000000000 ) ) ;
#140 = LOCAL_TIME ( 11, 28, 33.00000000000000000, #172 ) ;
#141 = APPROVAL_DATE_TIME ( #65, #78 ) ;
#142 = ORIENTED_EDGE ( 'NONE', *, *, #150, .T. ) ;
#143 = ORIENTED_EDGE ( 'NONE', *, *, #173, .T. ) ;
#144 = EDGE_LOOP ( 'NONE', ( #9, #143, #208, #69 ) ) ;
#145 = VERTEX_POINT ( 'NONE', #194 ) ;
#146 = CARTESIAN_POINT ( 'NONE',  ( 16.00000000000000000, 1.959434878635765131E-15, 0.000000000000000000 ) ) ;
#147 = VERTEX_POINT ( 'NONE', #146 ) ;
#148 = CARTESIAN_POINT ( 'NONE',  ( -16.00000000000000000, 0.000000000000000000, 10.00000000000000000 ) ) ;
#149 = DIRECTION ( 'NONE',  ( 1.000000000000000000, 0.000000000000000000, 0.000000000000000000 ) ) ;
#150 = EDGE_CURVE ( 'NONE', #202, #145, #13, .T. ) ;
#151 = DIRECTION ( 'NONE',  ( -0.000000000000000000, -0.000000000000000000, -1.000000000000000000 ) ) ;
#152 = LINE ( 'NONE', #63, #24 ) ;
#153 = PERSON_AND_ORGANIZATION ( #232, #59 ) ;
#154 = AXIS2_PLACEMENT_3D ( 'NONE', #28, #110, #248 ) ;
#155 =( NAMED_UNIT ( * ) PLANE_ANGLE_UNIT ( ) SI_UNIT ( $, .RADIAN. ) );
#156 = DATE_AND_TIME ( #199, #198 ) ;
#157 = DIRECTION ( 'NONE',  ( 1.000000000000000000, 0.000000000000000000, 0.000000000000000000 ) ) ;
#158 = PERSON_AND_ORGANIZATION_ROLE ( 'creator' ) ;
#159 = AXIS2_PLACEMENT_3D ( 'NONE', #108, #92, #168 ) ;
#160 = VERTEX_POINT ( 'NONE', #10 ) ;
#161 = AXIS2_PLACEMENT_3D ( 'NONE', #192, #178, #217 ) ;
#162 = ORIENTED_EDGE ( 'NONE', *, *, #122, .F. ) ;
#163 = PRODUCT_DEFINITION_FORMATION_WITH_SPECIFIED_SOURCE ( 'LIBOVOLNÝ', '', #106, .NOT_KNOWN. ) ;
#164 = ORIENTED_EDGE ( 'NONE', *, *, #116, .T. ) ;
#165 = CC_DESIGN_DATE_AND_TIME_ASSIGNMENT ( #40, #58, ( #41 ) ) ;
#166 = DIRECTION ( 'NONE',  ( 1.000000000000000000, 0.000000000000000000, 0.000000000000000000 ) ) ;
#167 = PRODUCT_DEFINITION_SHAPE ( 'NONE', 'NONE',  #41 ) ;
#168 = DIRECTION ( 'NONE',  ( 1.000000000000000000, 0.000000000000000000, 0.000000000000000000 ) ) ;
#169 = AXIS2_PLACEMENT_3D ( 'NONE', #97, #62, #17 ) ;
#170 = CARTESIAN_POINT ( 'NONE',  ( 0.000000000000000000, 0.000000000000000000, 10.00000000000000000 ) ) ;
#171 = SECURITY_CLASSIFICATION ( '', '', #252 ) ;
#172 = COORDINATED_UNIVERSAL_TIME_OFFSET ( 1, 0, .AHEAD. ) ;
#173 = EDGE_CURVE ( 'NONE', #38, #147, #25, .T. ) ;
#174 = FACE_OUTER_BOUND ( 'NONE', #188, .T. ) ;
#175 = PERSON_AND_ORGANIZATION ( #232, #59 ) ;
#176 = CIRCLE ( 'NONE', #125, 12.50000000000000000 ) ;
#177 = COORDINATED_UNIVERSAL_TIME_OFFSET ( 1, 0, .AHEAD. ) ;
#178 = DIRECTION ( 'NONE',  ( 0.000000000000000000, 0.000000000000000000, 1.000000000000000000 ) ) ;
#179 = ORIENTED_EDGE ( 'NONE', *, *, #227, .T. ) ;
#180 = APPROVAL_DATE_TIME ( #156, #209 ) ;
#181 = CC_DESIGN_PERSON_AND_ORGANIZATION_ASSIGNMENT ( #175, #137, ( #163 ) ) ;
#182 = AXIS2_PLACEMENT_3D ( 'NONE', #4, #87, #239 ) ;
#183 = DATE_TIME_ROLE ( 'classification_date' ) ;
#184 = ADVANCED_FACE ( 'NONE', ( #230 ), #14, .T. ) ;
#185 = DATE_AND_TIME ( #6, #132 ) ;
#186 = DIRECTION ( 'NONE',  ( 0.000000000000000000, 0.000000000000000000, 1.000000000000000000 ) ) ;
#187 = EDGE_LOOP ( 'NONE', ( #89, #73 ) ) ;
#188 = EDGE_LOOP ( 'NONE', ( #129, #221, #120, #105 ) ) ;
#189 = AXIS2_PLACEMENT_3D ( 'NONE', #20, #203, #83 ) ;
#190 = EDGE_LOOP ( 'NONE', ( #107, #126, #179, #220 ) ) ;
#191 = DIRECTION ( 'NONE',  ( 0.000000000000000000, 0.000000000000000000, 1.000000000000000000 ) ) ;
#192 = CARTESIAN_POINT ( 'NONE',  ( 0.000000000000000000, 0.000000000000000000, 500.0000000000000000 ) ) ;
#193 = CIRCLE ( 'NONE', #85, 16.00000000000000000 ) ;
#194 = CARTESIAN_POINT ( 'NONE',  ( 12.50000000000000000, 1.530808498934191521E-15, 10.00000000000000000 ) ) ;
#195 = CARTESIAN_POINT ( 'NONE',  ( 16.00000000000000000, 1.959434878635765131E-15, 10.00000000000000000 ) ) ;
#196 = APPLICATION_PROTOCOL_DEFINITION ( 'international standard', 'config_control_design', 1994, #123 ) ;
#197 = CC_DESIGN_PERSON_AND_ORGANIZATION_ASSIGNMENT ( #153, #79, ( #106 ) ) ;
#198 = LOCAL_TIME ( 11, 28, 33.00000000000000000, #94 ) ;
#199 = CALENDAR_DATE ( 2023, 12, 2 ) ;
#200 = ORIENTED_EDGE ( 'NONE', *, *, #57, .F. ) ;
#201 = COORDINATED_UNIVERSAL_TIME_OFFSET ( 1, 0, .AHEAD. ) ;
#202 = VERTEX_POINT ( 'NONE', #90 ) ;
#203 = DIRECTION ( 'NONE',  ( 0.000000000000000000, 0.000000000000000000, 1.000000000000000000 ) ) ;
#204 = EDGE_CURVE ( 'NONE', #160, #147, #109, .T. ) ;
#205 = MANIFOLD_SOLID_BREP ( 'Pøidat vysunutím3', #228 ) ;
#206 = ORIENTED_EDGE ( 'NONE', *, *, #127, .T. ) ;
#207 = DIRECTION ( 'NONE',  ( 1.000000000000000000, 0.000000000000000000, 0.000000000000000000 ) ) ;
#208 = ORIENTED_EDGE ( 'NONE', *, *, #71, .T. ) ;
#209 = APPROVAL ( #15, 'NEURÈENÝ' ) ;
#210 = CARTESIAN_POINT ( 'NONE',  ( 0.000000000000000000, 0.000000000000000000, 500.0000000000000000 ) ) ;
#211 = CC_DESIGN_DATE_AND_TIME_ASSIGNMENT ( #185, #183, ( #171 ) ) ;
#212 = AXIS2_PLACEMENT_3D ( 'NONE', #131, #133, #149 ) ;
#213 = CARTESIAN_POINT ( 'NONE',  ( 12.50000000000000000, 1.530808498934191521E-15, 500.0000000000000000 ) ) ;
#214 = CYLINDRICAL_SURFACE ( 'NONE', #96, 12.50000000000000000 ) ;
#215 = PERSON_AND_ORGANIZATION ( #232, #59 ) ;
#216 = CARTESIAN_POINT ( 'NONE',  ( -12.50000000000000000, 0.000000000000000000, 10.00000000000000000 ) ) ;
#217 = DIRECTION ( 'NONE',  ( 1.000000000000000000, 0.000000000000000000, -0.000000000000000000 ) ) ;
#218 = FACE_OUTER_BOUND ( 'NONE', #19, .T. ) ;
#219 = CC_DESIGN_APPROVAL ( #209, ( #41 ) ) ;
#220 = ORIENTED_EDGE ( 'NONE', *, *, #122, .T. ) ;
#221 = ORIENTED_EDGE ( 'NONE', *, *, #127, .F. ) ;
#222 = VERTEX_POINT ( 'NONE', #216 ) ;
#223 = DIRECTION ( 'NONE',  ( -0.000000000000000000, -0.000000000000000000, -1.000000000000000000 ) ) ;
#224 = APPROVAL_PERSON_ORGANIZATION ( #39, #209, #138 ) ;
#225 = LOCAL_TIME ( 11, 28, 33.00000000000000000, #177 ) ;
#226 = CARTESIAN_POINT ( 'NONE',  ( 0.000000000000000000, 0.000000000000000000, 500.0000000000000000 ) ) ;
#227 = EDGE_CURVE ( 'NONE', #22, #222, #152, .T. ) ;
#228 = CLOSED_SHELL ( 'NONE', ( #113, #184, #241, #33, #134, #98, #86 ) ) ;
#229 = CARTESIAN_POINT ( 'NONE',  ( 0.000000000000000000, 0.000000000000000000, 10.00000000000000000 ) ) ;
#230 = FACE_OUTER_BOUND ( 'NONE', #144, .T. ) ;
#231 = APPLICATION_PROTOCOL_DEFINITION ( 'international standard', 'config_control_design', 1994, #36 ) ;
#232 = PERSON ( 'NEURÈENÝ', 'NEURÈENÝ', 'NEURÈENÝ', ('NEURÈENÝ'), ('NEURÈENÝ'), ('NEURÈENÝ') ) ;
#233 = AXIS2_PLACEMENT_3D ( 'NONE', #210, #51, #12 ) ;
#234 = PERSON_AND_ORGANIZATION ( #232, #59 ) ;
#235 = APPROVAL_DATE_TIME ( #115, #136 ) ;
#236 = FACE_BOUND ( 'NONE', #60, .T. ) ;
#237 = CALENDAR_DATE ( 2023, 12, 2 ) ;
#238 = SHAPE_DEFINITION_REPRESENTATION ( #167, #103 ) ;
#239 = DIRECTION ( 'NONE',  ( 1.000000000000000000, 0.000000000000000000, 0.000000000000000000 ) ) ;
#240 = PLANE ( 'NONE',  #249 ) ;
#241 = ADVANCED_FACE ( 'NONE', ( #174 ), #61, .T. ) ;
#242 = CARTESIAN_POINT ( 'NONE',  ( -12.50000000000000000, 0.000000000000000000, 500.0000000000000000 ) ) ;
#243 = CARTESIAN_POINT ( 'NONE',  ( 0.000000000000000000, 0.000000000000000000, 0.000000000000000000 ) ) ;
#244 = ORIENTED_EDGE ( 'NONE', *, *, #130, .T. ) ;
#245 = CC_DESIGN_PERSON_AND_ORGANIZATION_ASSIGNMENT ( #80, #37, ( #171 ) ) ;
#246 = PLANE ( 'NONE',  #74 ) ;
#247 = FACE_OUTER_BOUND ( 'NONE', #187, .T. ) ;
#248 = DIRECTION ( 'NONE',  ( 1.000000000000000000, 0.000000000000000000, 0.000000000000000000 ) ) ;
#249 = AXIS2_PLACEMENT_3D ( 'NONE', #102, #186, #66 ) ;
#250 = PRODUCT_RELATED_PRODUCT_CATEGORY ( 'detail', '', ( #106 ) ) ;
#251 =( GEOMETRIC_REPRESENTATION_CONTEXT ( 3 ) GLOBAL_UNCERTAINTY_ASSIGNED_CONTEXT ( ( #101 ) ) GLOBAL_UNIT_ASSIGNED_CONTEXT ( ( #121, #155, #118 ) ) REPRESENTATION_CONTEXT ( 'NONE', 'WORKASPACE' ) );
#252 = SECURITY_CLASSIFICATION_LEVEL ( 'unclassified' ) ;
#253 = APPROVAL_PERSON_ORGANIZATION ( #100, #78, #124 ) ;
#254 = APPROVAL_ROLE ( '' ) ;
#255 = CARTESIAN_POINT ( 'NONE',  ( -16.00000000000000000, 0.000000000000000000, 10.00000000000000000 ) ) ;
ENDSEC;
END-ISO-10303-21;
