ISO-10303-21;
HEADER;
FILE_DESCRIPTION (( 'STEP AP203' ),
    '1' );
FILE_NAME ('7e26.STEP',
    '2022-07-07T09:43:41',
    ( '' ),
    ( '' ),
    'SwSTEP 2.0',
    'SolidWorks 2019',
    '' );
FILE_SCHEMA (( 'CONFIG_CONTROL_DESIGN' ));
ENDSEC;

DATA;
#1 = CARTESIAN_POINT ( 'NONE',  ( -9.000000000000000000, 0.000000000000000000, 7.000000000000000000 ) ) ;
#2 = LINE ( 'NONE', #293, #244 ) ;
#3 = PERSON_AND_ORGANIZATION_ROLE ( 'design_supplier' ) ;
#4 = EDGE_CURVE ( 'NONE', #192, #179, #49, .T. ) ;
#5 = ORIENTED_EDGE ( 'NONE', *, *, #249, .F. ) ;
#6 = APPROVAL_STATUS ( 'not_yet_approved' ) ;
#7 = DIRECTION ( 'NONE',  ( 1.000000000000000000, 0.000000000000000000, 0.000000000000000000 ) ) ;
#8 = AXIS2_PLACEMENT_3D ( 'NONE', #144, #233, #42 ) ;
#9 = ORIENTED_EDGE ( 'NONE', *, *, #191, .F. ) ;
#10 = APPROVAL_DATE_TIME ( #271, #120 ) ;
#11 = LOCAL_TIME ( 11, 43, 41.00000000000000000, #147 ) ;
#12 = SECURITY_CLASSIFICATION_LEVEL ( 'unclassified' ) ;
#13 = CC_DESIGN_PERSON_AND_ORGANIZATION_ASSIGNMENT ( #124, #155, ( #14 ) ) ;
#14 = SECURITY_CLASSIFICATION ( '', '', #12 ) ;
#15 = DIRECTION ( 'NONE',  ( 0.000000000000000000, 0.000000000000000000, 1.000000000000000000 ) ) ;
#16 = DIRECTION ( 'NONE',  ( 1.000000000000000000, 0.000000000000000000, 0.000000000000000000 ) ) ;
#17 = CIRCLE ( 'NONE', #136, 6.299999999999998934 ) ;
#18 = DIRECTION ( 'NONE',  ( -0.000000000000000000, -0.000000000000000000, -1.000000000000000000 ) ) ;
#19 = DIRECTION ( 'NONE',  ( 1.000000000000000000, 0.000000000000000000, 0.000000000000000000 ) ) ;
#20 = CARTESIAN_POINT ( 'NONE',  ( 6.099999999999999645, 7.470345474798854293E-16, 807.0000000000000000 ) ) ;
#21 = AXIS2_PLACEMENT_3D ( 'NONE', #256, #89, #131 ) ;
#22 = CYLINDRICAL_SURFACE ( 'NONE', #83, 9.000000000000000000 ) ;
#23 = DIRECTION ( 'NONE',  ( 1.000000000000000000, 0.000000000000000000, 0.000000000000000000 ) ) ;
#24 = DIRECTION ( 'NONE',  ( -0.000000000000000000, -0.000000000000000000, -1.000000000000000000 ) ) ;
#25 = APPROVAL_ROLE ( '' ) ;
#26 = CIRCLE ( 'NONE', #296, 6.099999999999999645 ) ;
#27 = FACE_OUTER_BOUND ( 'NONE', #151, .T. ) ;
#28 = VERTEX_POINT ( 'NONE', #215 ) ;
#29 = EDGE_LOOP ( 'NONE', ( #243, #199, #154, #193 ) ) ;
#30 = AXIS2_PLACEMENT_3D ( 'NONE', #44, #146, #242 ) ;
#31 = VERTEX_POINT ( 'NONE', #1 ) ;
#32 = EDGE_LOOP ( 'NONE', ( #270, #148, #250, #9 ) ) ;
#33 = EDGE_CURVE ( 'NONE', #165, #292, #205, .T. ) ;
#34 = CALENDAR_DATE ( 2022, 7, 7 ) ;
#35 = EDGE_CURVE ( 'NONE', #64, #179, #17, .T. ) ;
#36 = CARTESIAN_POINT ( 'NONE',  ( 9.000000000000000000, 1.102182119232617714E-15, 7.000000000000000000 ) ) ;
#37 = CARTESIAN_POINT ( 'NONE',  ( 0.000000000000000000, 0.000000000000000000, 7.000000000000000000 ) ) ;
#38 = AXIS2_PLACEMENT_3D ( 'NONE', #175, #104, #16 ) ;
#39 = DIRECTION ( 'NONE',  ( 0.000000000000000000, 0.000000000000000000, 1.000000000000000000 ) ) ;
#40 = CYLINDRICAL_SURFACE ( 'NONE', #183, 6.099999999999999645 ) ;
#41 = AXIS2_PLACEMENT_3D ( 'NONE', #288, #298, #60 ) ;
#42 = DIRECTION ( 'NONE',  ( 1.000000000000000000, 0.000000000000000000, 0.000000000000000000 ) ) ;
#43 = EDGE_CURVE ( 'NONE', #289, #165, #2, .T. ) ;
#44 = CARTESIAN_POINT ( 'NONE',  ( 0.000000000000000000, 0.000000000000000000, 7.000000000000000000 ) ) ;
#45 = PERSON_AND_ORGANIZATION_ROLE ( 'creator' ) ;
#46 = CC_DESIGN_APPROVAL ( #120, ( #220 ) ) ;
#47 = DIRECTION ( 'NONE',  ( 1.000000000000000000, 0.000000000000000000, 0.000000000000000000 ) ) ;
#48 = PERSON_AND_ORGANIZATION_ROLE ( 'creator' ) ;
#49 = CIRCLE ( 'NONE', #227, 0.1999999999999996503 ) ;
#50 = ORIENTED_EDGE ( 'NONE', *, *, #191, .T. ) ;
#51 = DIRECTION ( 'NONE',  ( 0.000000000000000000, -1.000000000000000000, 0.000000000000000000 ) ) ;
#52 = DATE_AND_TIME ( #252, #11 ) ;
#53 = CC_DESIGN_APPROVAL ( #184, ( #14 ) ) ;
#54 = CC_DESIGN_PERSON_AND_ORGANIZATION_ASSIGNMENT ( #128, #3, ( #220 ) ) ;
#55 = ORIENTED_EDGE ( 'NONE', *, *, #173, .T. ) ;
#56 = EDGE_LOOP ( 'NONE', ( #223, #5, #246, #95 ) ) ;
#57 = DATE_AND_TIME ( #245, #118 ) ;
#58 =( GEOMETRIC_REPRESENTATION_CONTEXT ( 3 ) GLOBAL_UNCERTAINTY_ASSIGNED_CONTEXT ( ( #160 ) ) GLOBAL_UNIT_ASSIGNED_CONTEXT ( ( #230, #234, #71 ) ) REPRESENTATION_CONTEXT ( 'NONE', 'WORKASPACE' ) );
#59 = APPLICATION_CONTEXT ( 'configuration controlled 3d designs of mechanical parts and assemblies' ) ;
#60 = DIRECTION ( 'NONE',  ( 1.000000000000000000, 0.000000000000000000, 0.000000000000000000 ) ) ;
#61 = CARTESIAN_POINT ( 'NONE',  ( 0.000000000000000000, 0.000000000000000000, 807.0000000000000000 ) ) ;
#62 = CIRCLE ( 'NONE', #284, 6.099999999999999645 ) ;
#63 = FACE_OUTER_BOUND ( 'NONE', #32, .T. ) ;
#64 = VERTEX_POINT ( 'NONE', #76 ) ;
#65 = DIRECTION ( 'NONE',  ( 1.000000000000000000, 0.000000000000000000, -0.000000000000000000 ) ) ;
#66 = DIRECTION ( 'NONE',  ( 1.000000000000000000, 0.000000000000000000, -0.000000000000000000 ) ) ;
#67 = CARTESIAN_POINT ( 'NONE',  ( -6.099999999999999645, 0.000000000000000000, 7.199999999999984190 ) ) ;
#68 = CIRCLE ( 'NONE', #8, 6.099999999999999645 ) ;
#69 = AXIS2_PLACEMENT_3D ( 'NONE', #237, #135, #287 ) ;
#70 = PLANE ( 'NONE',  #277 ) ;
#71 =( NAMED_UNIT ( * ) SI_UNIT ( $, .STERADIAN. ) SOLID_ANGLE_UNIT ( ) );
#72 = CC_DESIGN_DATE_AND_TIME_ASSIGNMENT ( #52, #152, ( #92 ) ) ;
#73 = ORIENTED_EDGE ( 'NONE', *, *, #78, .T. ) ;
#74 = APPROVAL_ROLE ( '' ) ;
#75 = EDGE_LOOP ( 'NONE', ( #121, #238 ) ) ;
#76 = CARTESIAN_POINT ( 'NONE',  ( -6.299999999999998934, 7.715274834628324392E-16, 6.999999999999992006 ) ) ;
#77 = ORIENTED_EDGE ( 'NONE', *, *, #297, .T. ) ;
#78 = EDGE_CURVE ( 'NONE', #289, #31, #107, .T. ) ;
#79 = CIRCLE ( 'NONE', #141, 6.299999999999998934 ) ;
#80 = ORIENTED_EDGE ( 'NONE', *, *, #43, .F. ) ;
#81 = PERSON_AND_ORGANIZATION ( #226, #300 ) ;
#82 = CLOSED_SHELL ( 'NONE', ( #106, #133, #138, #305, #228, #109, #85, #273, #150 ) ) ;
#83 = AXIS2_PLACEMENT_3D ( 'NONE', #209, #24, #114 ) ;
#84 = FACE_OUTER_BOUND ( 'NONE', #241, .T. ) ;
#85 = ADVANCED_FACE ( 'NONE', ( #84 ), #206, .T. ) ;
#86 = DIRECTION ( 'NONE',  ( -0.000000000000000000, -0.000000000000000000, -1.000000000000000000 ) ) ;
#87 = DIRECTION ( 'NONE',  ( 1.000000000000000000, 0.000000000000000000, 0.000000000000000000 ) ) ;
#88 = APPROVAL_PERSON_ORGANIZATION ( #225, #184, #74 ) ;
#89 = DIRECTION ( 'NONE',  ( 1.224646799147353207E-16, 1.000000000000000000, -0.000000000000000000 ) ) ;
#90 = DIRECTION ( 'NONE',  ( -0.000000000000000000, -0.000000000000000000, -1.000000000000000000 ) ) ;
#91 = DATE_AND_TIME ( #307, #275 ) ;
#92 = PRODUCT_DEFINITION ( 'NEZNÁMÝ', '', #220, #202 ) ;
#93 = CARTESIAN_POINT ( 'NONE',  ( 0.000000000000000000, 0.000000000000000000, 0.000000000000000000 ) ) ;
#94 = PERSON_AND_ORGANIZATION_ROLE ( 'design_owner' ) ;
#95 = ORIENTED_EDGE ( 'NONE', *, *, #35, .F. ) ;
#96 = COORDINATED_UNIVERSAL_TIME_OFFSET ( 1, 0, .AHEAD. ) ;
#97 = CARTESIAN_POINT ( 'NONE',  ( 6.299999999999998934, 0.000000000000000000, 7.199999999999984190 ) ) ;
#98 = COORDINATED_UNIVERSAL_TIME_OFFSET ( 1, 0, .AHEAD. ) ;
#99 = AXIS2_PLACEMENT_3D ( 'NONE', #93, #265, #7 ) ;
#100 = DIRECTION ( 'NONE',  ( -0.000000000000000000, -0.000000000000000000, -1.000000000000000000 ) ) ;
#101 = EDGE_CURVE ( 'NONE', #292, #165, #302, .T. ) ;
#102 = ORIENTED_EDGE ( 'NONE', *, *, #101, .F. ) ;
#103 = AXIS2_PLACEMENT_3D ( 'NONE', #257, #39, #19 ) ;
#104 = DIRECTION ( 'NONE',  ( 0.000000000000000000, 0.000000000000000000, 1.000000000000000000 ) ) ;
#105 = COORDINATED_UNIVERSAL_TIME_OFFSET ( 1, 0, .AHEAD. ) ;
#106 = ADVANCED_FACE ( 'NONE', ( #274 ), #174, .F. ) ;
#107 = CIRCLE ( 'NONE', #38, 9.000000000000000000 ) ;
#108 = DIRECTION ( 'NONE',  ( -1.000000000000000000, 0.000000000000000000, 0.000000000000000000 ) ) ;
#109 = ADVANCED_FACE ( 'NONE', ( #130 ), #70, .F. ) ;
#110 = FACE_OUTER_BOUND ( 'NONE', #127, .T. ) ;
#111 = DIRECTION ( 'NONE',  ( -1.000000000000000000, 0.000000000000000000, 0.000000000000000000 ) ) ;
#112 = APPLICATION_PROTOCOL_DEFINITION ( 'international standard', 'config_control_design', 1994, #264 ) ;
#113 = AXIS2_PLACEMENT_3D ( 'NONE', #283, #137, #87 ) ;
#114 = DIRECTION ( 'NONE',  ( -1.000000000000000000, 0.000000000000000000, 0.000000000000000000 ) ) ;
#115 = EDGE_CURVE ( 'NONE', #156, #28, #68, .T. ) ;
#116 = DIRECTION ( 'NONE',  ( 0.000000000000000000, 0.000000000000000000, 1.000000000000000000 ) ) ;
#117 = DIRECTION ( 'NONE',  ( 0.000000000000000000, 0.000000000000000000, 1.000000000000000000 ) ) ;
#118 = LOCAL_TIME ( 11, 43, 41.00000000000000000, #96 ) ;
#119 = COORDINATED_UNIVERSAL_TIME_OFFSET ( 1, 0, .AHEAD. ) ;
#120 = APPROVAL ( #6, 'NEURÈENÝ' ) ;
#121 = ORIENTED_EDGE ( 'NONE', *, *, #255, .T. ) ;
#122 = EDGE_LOOP ( 'NONE', ( #247, #77, #172, #267 ) ) ;
#123 = ORIENTED_EDGE ( 'NONE', *, *, #286, .F. ) ;
#124 = PERSON_AND_ORGANIZATION ( #226, #300 ) ;
#125 = APPROVAL ( #235, 'NEURÈENÝ' ) ;
#126 = ORIENTED_EDGE ( 'NONE', *, *, #157, .T. ) ;
#127 = EDGE_LOOP ( 'NONE', ( #80, #221, #50, #272 ) ) ;
#128 = PERSON_AND_ORGANIZATION ( #226, #300 ) ;
#129 = DIRECTION ( 'NONE',  ( -0.000000000000000000, -0.000000000000000000, -1.000000000000000000 ) ) ;
#130 = FACE_OUTER_BOUND ( 'NONE', #170, .T. ) ;
#131 = DIRECTION ( 'NONE',  ( -1.000000000000000000, 1.224646799147353454E-16, 0.000000000000000000 ) ) ;
#132 = LOCAL_TIME ( 11, 43, 41.00000000000000000, #105 ) ;
#133 = ADVANCED_FACE ( 'NONE', ( #279 ), #40, .T. ) ;
#134 = DIRECTION ( 'NONE',  ( -1.000000000000000000, 0.000000000000000000, 0.000000000000000000 ) ) ;
#135 = DIRECTION ( 'NONE',  ( 0.000000000000000000, 0.000000000000000000, 1.000000000000000000 ) ) ;
#136 = AXIS2_PLACEMENT_3D ( 'NONE', #195, #294, #47 ) ;
#137 = DIRECTION ( 'NONE',  ( 0.000000000000000000, 0.000000000000000000, 1.000000000000000000 ) ) ;
#138 = ADVANCED_FACE ( 'NONE', ( #63 ), #22, .T. ) ;
#139 = CARTESIAN_POINT ( 'NONE',  ( 0.000000000000000000, 0.000000000000000000, 807.0000000000000000 ) ) ;
#140 = CARTESIAN_POINT ( 'NONE',  ( 0.000000000000000000, 0.000000000000000000, 807.0000000000000000 ) ) ;
#141 = AXIS2_PLACEMENT_3D ( 'NONE', #254, #290, #232 ) ;
#142 = APPROVAL_PERSON_ORGANIZATION ( #259, #125, #25 ) ;
#143 = FACE_OUTER_BOUND ( 'NONE', #56, .T. ) ;
#144 = CARTESIAN_POINT ( 'NONE',  ( 0.000000000000000000, 0.000000000000000000, 807.0000000000000000 ) ) ;
#145 = EDGE_CURVE ( 'NONE', #28, #196, #210, .T. ) ;
#146 = DIRECTION ( 'NONE',  ( 0.000000000000000000, 0.000000000000000000, 1.000000000000000000 ) ) ;
#147 = COORDINATED_UNIVERSAL_TIME_OFFSET ( 1, 0, .AHEAD. ) ;
#148 = ORIENTED_EDGE ( 'NONE', *, *, #43, .T. ) ;
#149 = ORIENTED_EDGE ( 'NONE', *, *, #115, .T. ) ;
#150 = ADVANCED_FACE ( 'NONE', ( #143 ), #253, .F. ) ;
#151 = EDGE_LOOP ( 'NONE', ( #126, #73 ) ) ;
#152 = DATE_TIME_ROLE ( 'creation_date' ) ;
#153 = APPROVAL_PERSON_ORGANIZATION ( #219, #120, #200 ) ;
#154 = ORIENTED_EDGE ( 'NONE', *, *, #249, .T. ) ;
#155 = PERSON_AND_ORGANIZATION_ROLE ( 'classification_officer' ) ;
#156 = VERTEX_POINT ( 'NONE', #20 ) ;
#157 = EDGE_CURVE ( 'NONE', #31, #289, #229, .T. ) ;
#158 = PRODUCT ( '7e26', '7e26', '', ( #187 ) ) ;
#159 = AXIS2_PLACEMENT_3D ( 'NONE', #139, #163, #65 ) ;
#160 = UNCERTAINTY_MEASURE_WITH_UNIT (LENGTH_MEASURE( 1.000000000000000082E-05 ), #230, 'distance_accuracy_value', 'NONE');
#161 = AXIS2_PLACEMENT_3D ( 'NONE', #224, #185, #182 ) ;
#162 = CARTESIAN_POINT ( 'NONE',  ( -9.000000000000000000, 0.000000000000000000, 0.000000000000000000 ) ) ;
#163 = DIRECTION ( 'NONE',  ( 0.000000000000000000, 0.000000000000000000, 1.000000000000000000 ) ) ;
#164 = CYLINDRICAL_SURFACE ( 'NONE', #276, 9.000000000000000000 ) ;
#165 = VERTEX_POINT ( 'NONE', #261 ) ;
#166 = VECTOR ( 'NONE', #90, 1000.000000000000000 ) ;
#167 = CC_DESIGN_PERSON_AND_ORGANIZATION_ASSIGNMENT ( #263, #45, ( #92 ) ) ;
#168 = FACE_BOUND ( 'NONE', #75, .T. ) ;
#169 = APPROVAL_DATE_TIME ( #91, #125 ) ;
#170 = EDGE_LOOP ( 'NONE', ( #102, #251 ) ) ;
#171 = SHAPE_DEFINITION_REPRESENTATION ( #181, #207 ) ;
#172 = ORIENTED_EDGE ( 'NONE', *, *, #255, .F. ) ;
#173 = EDGE_CURVE ( 'NONE', #196, #192, #26, .T. ) ;
#174 = TOROIDAL_SURFACE ( 'NONE', #69, 6.299999999999998934, 0.2000000000000000111 ) ;
#175 = CARTESIAN_POINT ( 'NONE',  ( 0.000000000000000000, 0.000000000000000000, 7.000000000000000000 ) ) ;
#176 = EDGE_LOOP ( 'NONE', ( #218, #149 ) ) ;
#177 = CC_DESIGN_SECURITY_CLASSIFICATION ( #14, ( #220 ) ) ;
#178 = PRODUCT_RELATED_PRODUCT_CATEGORY ( 'detail', '', ( #158 ) ) ;
#179 = VERTEX_POINT ( 'NONE', #211 ) ;
#180 = MANIFOLD_SOLID_BREP ( 'Zaoblit1', #82 ) ;
#181 = PRODUCT_DEFINITION_SHAPE ( 'NONE', 'NONE',  #92 ) ;
#182 = DIRECTION ( 'NONE',  ( 1.000000000000000000, 0.000000000000000000, 0.000000000000000000 ) ) ;
#183 = AXIS2_PLACEMENT_3D ( 'NONE', #140, #18, #111 ) ;
#184 = APPROVAL ( #248, 'NEURÈENÝ' ) ;
#185 = DIRECTION ( 'NONE',  ( 0.000000000000000000, 0.000000000000000000, 1.000000000000000000 ) ) ;
#186 = CARTESIAN_POINT ( 'NONE',  ( 0.000000000000000000, 0.000000000000000000, 807.0000000000000000 ) ) ;
#187 = MECHANICAL_CONTEXT ( 'NONE', #264, 'mechanical' ) ;
#188 = DIRECTION ( 'NONE',  ( 1.000000000000000000, 0.000000000000000000, 0.000000000000000000 ) ) ;
#189 = CARTESIAN_POINT ( 'NONE',  ( 6.099999999999999645, 7.470345474798854293E-16, 7.199999999999984190 ) ) ;
#190 = CIRCLE ( 'NONE', #21, 0.1999999999999996503 ) ;
#191 = EDGE_CURVE ( 'NONE', #31, #292, #304, .T. ) ;
#192 = VERTEX_POINT ( 'NONE', #189 ) ;
#193 = ORIENTED_EDGE ( 'NONE', *, *, #145, .F. ) ;
#194 = DATE_TIME_ROLE ( 'classification_date' ) ;
#195 = CARTESIAN_POINT ( 'NONE',  ( 0.000000000000000000, 0.000000000000000000, 7.000000000000000000 ) ) ;
#196 = VERTEX_POINT ( 'NONE', #67 ) ;
#197 = APPROVAL_DATE_TIME ( #201, #184 ) ;
#198 = CC_DESIGN_PERSON_AND_ORGANIZATION_ASSIGNMENT ( #280, #94, ( #158 ) ) ;
#199 = ORIENTED_EDGE ( 'NONE', *, *, #282, .T. ) ;
#200 = APPROVAL_ROLE ( '' ) ;
#201 = DATE_AND_TIME ( #266, #132 ) ;
#202 = DESIGN_CONTEXT ( 'detailed design', #59, 'design' ) ;
#203 = LOCAL_TIME ( 11, 43, 41.00000000000000000, #98 ) ;
#204 = CARTESIAN_POINT ( 'NONE',  ( 6.099999999999999645, 7.470345474798854293E-16, 807.0000000000000000 ) ) ;
#205 = CIRCLE ( 'NONE', #99, 9.000000000000000000 ) ;
#206 = CYLINDRICAL_SURFACE ( 'NONE', #281, 6.099999999999999645 ) ;
#207 = ADVANCED_BREP_SHAPE_REPRESENTATION ( '7e26', ( #180, #103 ), #58 ) ;
#208 = DIRECTION ( 'NONE',  ( -0.000000000000000000, -0.000000000000000000, -1.000000000000000000 ) ) ;
#209 = CARTESIAN_POINT ( 'NONE',  ( 0.000000000000000000, 0.000000000000000000, 7.000000000000000000 ) ) ;
#210 = LINE ( 'NONE', #258, #213 ) ;
#211 = CARTESIAN_POINT ( 'NONE',  ( 6.299999999999998934, 0.000000000000000000, 6.999999999999992006 ) ) ;
#212 = CARTESIAN_POINT ( 'NONE',  ( -9.000000000000000000, 0.000000000000000000, 7.000000000000000000 ) ) ;
#213 = VECTOR ( 'NONE', #285, 1000.000000000000000 ) ;
#214 = APPLICATION_PROTOCOL_DEFINITION ( 'international standard', 'config_control_design', 1994, #59 ) ;
#215 = CARTESIAN_POINT ( 'NONE',  ( -6.099999999999999645, 0.000000000000000000, 807.0000000000000000 ) ) ;
#216 = FACE_OUTER_BOUND ( 'NONE', #176, .T. ) ;
#217 = CC_DESIGN_PERSON_AND_ORGANIZATION_ASSIGNMENT ( #81, #48, ( #220 ) ) ;
#218 = ORIENTED_EDGE ( 'NONE', *, *, #286, .T. ) ;
#219 = PERSON_AND_ORGANIZATION ( #226, #300 ) ;
#220 = PRODUCT_DEFINITION_FORMATION_WITH_SPECIFIED_SOURCE ( 'LIBOVOLNÝ', '', #158, .NOT_KNOWN. ) ;
#221 = ORIENTED_EDGE ( 'NONE', *, *, #157, .F. ) ;
#222 = DIRECTION ( 'NONE',  ( 0.000000000000000000, 0.000000000000000000, -1.000000000000000000 ) ) ;
#223 = ORIENTED_EDGE ( 'NONE', *, *, #297, .F. ) ;
#224 = CARTESIAN_POINT ( 'NONE',  ( 0.000000000000000000, 0.000000000000000000, 0.000000000000000000 ) ) ;
#225 = PERSON_AND_ORGANIZATION ( #226, #300 ) ;
#226 = PERSON ( 'NEURÈENÝ', 'NEURÈENÝ', 'NEURÈENÝ', ('NEURÈENÝ'), ('NEURÈENÝ'), ('NEURÈENÝ') ) ;
#227 = AXIS2_PLACEMENT_3D ( 'NONE', #97, #51, #222 ) ;
#228 = ADVANCED_FACE ( 'NONE', ( #168, #27 ), #262, .T. ) ;
#229 = CIRCLE ( 'NONE', #260, 9.000000000000000000 ) ;
#230 =( LENGTH_UNIT ( ) NAMED_UNIT ( * ) SI_UNIT ( .MILLI., .METRE. ) );
#231 = CC_DESIGN_DATE_AND_TIME_ASSIGNMENT ( #57, #194, ( #14 ) ) ;
#232 = DIRECTION ( 'NONE',  ( 1.000000000000000000, 0.000000000000000000, 0.000000000000000000 ) ) ;
#233 = DIRECTION ( 'NONE',  ( 0.000000000000000000, 0.000000000000000000, 1.000000000000000000 ) ) ;
#234 =( NAMED_UNIT ( * ) PLANE_ANGLE_UNIT ( ) SI_UNIT ( $, .RADIAN. ) );
#235 = APPROVAL_STATUS ( 'not_yet_approved' ) ;
#236 = VECTOR ( 'NONE', #86, 1000.000000000000000 ) ;
#237 = CARTESIAN_POINT ( 'NONE',  ( 0.000000000000000000, 0.000000000000000000, 7.199999999999984190 ) ) ;
#238 = ORIENTED_EDGE ( 'NONE', *, *, #35, .T. ) ;
#239 = DIRECTION ( 'NONE',  ( 0.000000000000000000, 0.000000000000000000, 1.000000000000000000 ) ) ;
#240 = CARTESIAN_POINT ( 'NONE',  ( 0.000000000000000000, 0.000000000000000000, 7.199999999999984190 ) ) ;
#241 = EDGE_LOOP ( 'NONE', ( #295, #123, #268, #55 ) ) ;
#242 = DIRECTION ( 'NONE',  ( 1.000000000000000000, 0.000000000000000000, -0.000000000000000000 ) ) ;
#243 = ORIENTED_EDGE ( 'NONE', *, *, #115, .F. ) ;
#244 = VECTOR ( 'NONE', #100, 1000.000000000000000 ) ;
#245 = CALENDAR_DATE ( 2022, 7, 7 ) ;
#246 = ORIENTED_EDGE ( 'NONE', *, *, #4, .T. ) ;
#247 = ORIENTED_EDGE ( 'NONE', *, *, #173, .F. ) ;
#248 = APPROVAL_STATUS ( 'not_yet_approved' ) ;
#249 = EDGE_CURVE ( 'NONE', #192, #196, #291, .T. ) ;
#250 = ORIENTED_EDGE ( 'NONE', *, *, #33, .T. ) ;
#251 = ORIENTED_EDGE ( 'NONE', *, *, #33, .F. ) ;
#252 = CALENDAR_DATE ( 2022, 7, 7 ) ;
#253 = TOROIDAL_SURFACE ( 'NONE', #113, 6.299999999999998934, 0.2000000000000000111 ) ;
#254 = CARTESIAN_POINT ( 'NONE',  ( 0.000000000000000000, 0.000000000000000000, 7.000000000000000000 ) ) ;
#255 = EDGE_CURVE ( 'NONE', #179, #64, #79, .T. ) ;
#256 = CARTESIAN_POINT ( 'NONE',  ( -6.299999999999998934, 7.715274834628324392E-16, 7.199999999999984190 ) ) ;
#257 = CARTESIAN_POINT ( 'NONE',  ( 0.000000000000000000, 0.000000000000000000, 0.000000000000000000 ) ) ;
#258 = CARTESIAN_POINT ( 'NONE',  ( -6.099999999999999645, 0.000000000000000000, 807.0000000000000000 ) ) ;
#259 = PERSON_AND_ORGANIZATION ( #226, #300 ) ;
#260 = AXIS2_PLACEMENT_3D ( 'NONE', #303, #117, #188 ) ;
#261 = CARTESIAN_POINT ( 'NONE',  ( 9.000000000000000000, 1.102182119232617714E-15, 0.000000000000000000 ) ) ;
#262 = PLANE ( 'NONE',  #30 ) ;
#263 = PERSON_AND_ORGANIZATION ( #226, #300 ) ;
#264 = APPLICATION_CONTEXT ( 'configuration controlled 3d designs of mechanical parts and assemblies' ) ;
#265 = DIRECTION ( 'NONE',  ( 0.000000000000000000, 0.000000000000000000, 1.000000000000000000 ) ) ;
#266 = CALENDAR_DATE ( 2022, 7, 7 ) ;
#267 = ORIENTED_EDGE ( 'NONE', *, *, #4, .F. ) ;
#268 = ORIENTED_EDGE ( 'NONE', *, *, #145, .T. ) ;
#269 = CC_DESIGN_APPROVAL ( #125, ( #92 ) ) ;
#270 = ORIENTED_EDGE ( 'NONE', *, *, #78, .F. ) ;
#271 = DATE_AND_TIME ( #34, #203 ) ;
#272 = ORIENTED_EDGE ( 'NONE', *, *, #101, .T. ) ;
#273 = ADVANCED_FACE ( 'NONE', ( #216 ), #299, .T. ) ;
#274 = FACE_OUTER_BOUND ( 'NONE', #122, .T. ) ;
#275 = LOCAL_TIME ( 11, 43, 41.00000000000000000, #119 ) ;
#276 = AXIS2_PLACEMENT_3D ( 'NONE', #37, #208, #134 ) ;
#277 = AXIS2_PLACEMENT_3D ( 'NONE', #306, #116, #66 ) ;
#278 = DIRECTION ( 'NONE',  ( 1.000000000000000000, 0.000000000000000000, 0.000000000000000000 ) ) ;
#279 = FACE_OUTER_BOUND ( 'NONE', #29, .T. ) ;
#280 = PERSON_AND_ORGANIZATION ( #226, #300 ) ;
#281 = AXIS2_PLACEMENT_3D ( 'NONE', #61, #129, #108 ) ;
#282 = EDGE_CURVE ( 'NONE', #156, #192, #301, .T. ) ;
#283 = CARTESIAN_POINT ( 'NONE',  ( 0.000000000000000000, 0.000000000000000000, 7.199999999999984190 ) ) ;
#284 = AXIS2_PLACEMENT_3D ( 'NONE', #186, #15, #278 ) ;
#285 = DIRECTION ( 'NONE',  ( -0.000000000000000000, -0.000000000000000000, -1.000000000000000000 ) ) ;
#286 = EDGE_CURVE ( 'NONE', #28, #156, #62, .T. ) ;
#287 = DIRECTION ( 'NONE',  ( 1.000000000000000000, 0.000000000000000000, 0.000000000000000000 ) ) ;
#288 = CARTESIAN_POINT ( 'NONE',  ( 0.000000000000000000, 0.000000000000000000, 7.199999999999984190 ) ) ;
#289 = VERTEX_POINT ( 'NONE', #36 ) ;
#290 = DIRECTION ( 'NONE',  ( -0.000000000000000000, -0.000000000000000000, -1.000000000000000000 ) ) ;
#291 = CIRCLE ( 'NONE', #41, 6.099999999999999645 ) ;
#292 = VERTEX_POINT ( 'NONE', #162 ) ;
#293 = CARTESIAN_POINT ( 'NONE',  ( 9.000000000000000000, 1.102182119232617714E-15, 7.000000000000000000 ) ) ;
#294 = DIRECTION ( 'NONE',  ( -0.000000000000000000, -0.000000000000000000, -1.000000000000000000 ) ) ;
#295 = ORIENTED_EDGE ( 'NONE', *, *, #282, .F. ) ;
#296 = AXIS2_PLACEMENT_3D ( 'NONE', #240, #239, #23 ) ;
#297 = EDGE_CURVE ( 'NONE', #196, #64, #190, .T. ) ;
#298 = DIRECTION ( 'NONE',  ( 0.000000000000000000, 0.000000000000000000, 1.000000000000000000 ) ) ;
#299 = PLANE ( 'NONE',  #159 ) ;
#300 = ORGANIZATION ( 'NEURÈENÝ', 'NEURÈENÝ', '' ) ;
#301 = LINE ( 'NONE', #204, #236 ) ;
#302 = CIRCLE ( 'NONE', #161, 9.000000000000000000 ) ;
#303 = CARTESIAN_POINT ( 'NONE',  ( 0.000000000000000000, 0.000000000000000000, 7.000000000000000000 ) ) ;
#304 = LINE ( 'NONE', #212, #166 ) ;
#305 = ADVANCED_FACE ( 'NONE', ( #110 ), #164, .T. ) ;
#306 = CARTESIAN_POINT ( 'NONE',  ( 0.000000000000000000, 0.000000000000000000, 0.000000000000000000 ) ) ;
#307 = CALENDAR_DATE ( 2022, 7, 7 ) ;
ENDSEC;
END-ISO-10303-21;
