ISO-10303-21;
HEADER;
FILE_DESCRIPTION (( 'STEP AP203' ),
    '1' );
FILE_NAME ('51d6.STEP',
    '2023-02-12T11:17:34',
    ( '' ),
    ( '' ),
    'SwSTEP 2.0',
    'SolidWorks 2019',
    '' );
FILE_SCHEMA (( 'CONFIG_CONTROL_DESIGN' ));
ENDSEC;

DATA;
#1 = DATE_AND_TIME ( #183, #93 ) ;
#2 = CC_DESIGN_PERSON_AND_ORGANIZATION_ASSIGNMENT ( #95, #153, ( #110 ) ) ;
#3 = VERTEX_POINT ( 'NONE', #10 ) ;
#4 = ORIENTED_EDGE ( 'NONE', *, *, #255, .F. ) ;
#5 = APPROVAL_ROLE ( '' ) ;
#6 = EDGE_LOOP ( 'NONE', ( #143, #161, #187, #219 ) ) ;
#7 = PERSON_AND_ORGANIZATION_ROLE ( 'classification_officer' ) ;
#8 = EDGE_LOOP ( 'NONE', ( #100, #116 ) ) ;
#9 = AXIS2_PLACEMENT_3D ( 'NONE', #48, #85, #109 ) ;
#10 = CARTESIAN_POINT ( 'NONE',  ( -5.100000000000001421, 0.000000000000000000, 5.000000000000000000 ) ) ;
#11 = CARTESIAN_POINT ( 'NONE',  ( 0.000000000000000000, 0.000000000000000000, 0.000000000000000000 ) ) ;
#12 = CARTESIAN_POINT ( 'NONE',  ( 0.000000000000000000, 0.000000000000000000, 5.000000000000000000 ) ) ;
#13 = CIRCLE ( 'NONE', #35, 8.000000000000000000 ) ;
#14 = CARTESIAN_POINT ( 'NONE',  ( -8.000000000000000000, 0.000000000000000000, 5.000000000000000000 ) ) ;
#15 = FACE_BOUND ( 'NONE', #84, .T. ) ;
#16 = FACE_OUTER_BOUND ( 'NONE', #58, .T. ) ;
#17 = AXIS2_PLACEMENT_3D ( 'NONE', #244, #62, #159 ) ;
#18 = CC_DESIGN_APPROVAL ( #203, ( #208 ) ) ;
#19 = MECHANICAL_CONTEXT ( 'NONE', #88, 'mechanical' ) ;
#20 = EDGE_CURVE ( 'NONE', #206, #103, #97, .T. ) ;
#21 = DATE_AND_TIME ( #236, #24 ) ;
#22 = DATE_AND_TIME ( #180, #125 ) ;
#23 = VERTEX_POINT ( 'NONE', #27 ) ;
#24 = LOCAL_TIME ( 12, 17, 34.00000000000000000, #73 ) ;
#25 = APPROVAL_DATE_TIME ( #21, #252 ) ;
#26 = DESIGN_CONTEXT ( 'detailed design', #164, 'design' ) ;
#27 = CARTESIAN_POINT ( 'NONE',  ( 5.100000000000001421, 6.245698675651501825E-16, 5.000000000000000000 ) ) ;
#28 = EDGE_CURVE ( 'NONE', #103, #3, #246, .T. ) ;
#29 = ORIENTED_EDGE ( 'NONE', *, *, #234, .F. ) ;
#30 = PLANE ( 'NONE',  #17 ) ;
#31 = DIRECTION ( 'NONE',  ( -1.000000000000000000, 0.000000000000000000, 0.000000000000000000 ) ) ;
#32 = LINE ( 'NONE', #169, #69 ) ;
#33 = DIRECTION ( 'NONE',  ( 1.000000000000000000, 0.000000000000000000, 0.000000000000000000 ) ) ;
#34 = DIRECTION ( 'NONE',  ( 1.000000000000000000, 0.000000000000000000, 0.000000000000000000 ) ) ;
#35 = AXIS2_PLACEMENT_3D ( 'NONE', #12, #229, #50 ) ;
#36 = AXIS2_PLACEMENT_3D ( 'NONE', #172, #224, #90 ) ;
#37 = LOCAL_TIME ( 12, 17, 34.00000000000000000, #115 ) ;
#38 = ORIENTED_EDGE ( 'NONE', *, *, #212, .T. ) ;
#39 = CLOSED_SHELL ( 'NONE', ( #182, #193, #123, #167, #41, #154, #71 ) ) ;
#40 = ORIENTED_EDGE ( 'NONE', *, *, #226, .F. ) ;
#41 = ADVANCED_FACE ( 'NONE', ( #81 ), #30, .F. ) ;
#42 = CARTESIAN_POINT ( 'NONE',  ( 0.000000000000000000, 0.000000000000000000, 1000.000000000000000 ) ) ;
#43 = PLANE ( 'NONE',  #136 ) ;
#44 = VECTOR ( 'NONE', #225, 1000.000000000000000 ) ;
#45 = CARTESIAN_POINT ( 'NONE',  ( 8.000000000000000000, 9.797174393178825657E-16, 0.000000000000000000 ) ) ;
#46 = PRODUCT_DEFINITION_SHAPE ( 'NONE', 'NONE',  #238 ) ;
#47 = DIRECTION ( 'NONE',  ( 0.000000000000000000, 0.000000000000000000, 1.000000000000000000 ) ) ;
#48 = CARTESIAN_POINT ( 'NONE',  ( 0.000000000000000000, 0.000000000000000000, 1000.000000000000000 ) ) ;
#49 = DIRECTION ( 'NONE',  ( -0.000000000000000000, -0.000000000000000000, -1.000000000000000000 ) ) ;
#50 = DIRECTION ( 'NONE',  ( 1.000000000000000000, 0.000000000000000000, 0.000000000000000000 ) ) ;
#51 = PERSON ( 'NEURÈENÝ', 'NEURÈENÝ', 'NEURÈENÝ', ('NEURÈENÝ'), ('NEURÈENÝ'), ('NEURÈENÝ') ) ;
#52 = UNCERTAINTY_MEASURE_WITH_UNIT (LENGTH_MEASURE( 1.000000000000000082E-05 ), #134, 'distance_accuracy_value', 'NONE');
#53 = COORDINATED_UNIVERSAL_TIME_OFFSET ( 1, 0, .AHEAD. ) ;
#54 = DIRECTION ( 'NONE',  ( 0.000000000000000000, 0.000000000000000000, 1.000000000000000000 ) ) ;
#55 = PERSON_AND_ORGANIZATION ( #51, #151 ) ;
#56 = ORIENTED_EDGE ( 'NONE', *, *, #196, .T. ) ;
#57 = MANIFOLD_SOLID_BREP ( 'Pøidat vysunutím3', #39 ) ;
#58 = EDGE_LOOP ( 'NONE', ( #77, #40, #106, #56 ) ) ;
#59 = APPROVAL_STATUS ( 'not_yet_approved' ) ;
#60 = EDGE_LOOP ( 'NONE', ( #76, #204 ) ) ;
#61 = APPROVAL_DATE_TIME ( #241, #203 ) ;
#62 = DIRECTION ( 'NONE',  ( 0.000000000000000000, 0.000000000000000000, 1.000000000000000000 ) ) ;
#63 = CARTESIAN_POINT ( 'NONE',  ( 0.000000000000000000, 0.000000000000000000, 5.000000000000000000 ) ) ;
#64 = APPROVAL_PERSON_ORGANIZATION ( #96, #252, #197 ) ;
#65 = CARTESIAN_POINT ( 'NONE',  ( 0.000000000000000000, 0.000000000000000000, 5.000000000000000000 ) ) ;
#66 = CYLINDRICAL_SURFACE ( 'NONE', #9, 5.100000000000001421 ) ;
#67 = CC_DESIGN_PERSON_AND_ORGANIZATION_ASSIGNMENT ( #121, #245, ( #208 ) ) ;
#68 = DIRECTION ( 'NONE',  ( 1.000000000000000000, 0.000000000000000000, 0.000000000000000000 ) ) ;
#69 = VECTOR ( 'NONE', #49, 1000.000000000000000 ) ;
#70 = CARTESIAN_POINT ( 'NONE',  ( -8.000000000000000000, 0.000000000000000000, 0.000000000000000000 ) ) ;
#71 = ADVANCED_FACE ( 'NONE', ( #146 ), #43, .T. ) ;
#72 = VECTOR ( 'NONE', #209, 1000.000000000000000 ) ;
#73 = COORDINATED_UNIVERSAL_TIME_OFFSET ( 1, 0, .AHEAD. ) ;
#74 = APPROVAL ( #59, 'NEURÈENÝ' ) ;
#75 = COORDINATED_UNIVERSAL_TIME_OFFSET ( 1, 0, .AHEAD. ) ;
#76 = ORIENTED_EDGE ( 'NONE', *, *, #175, .F. ) ;
#77 = ORIENTED_EDGE ( 'NONE', *, *, #138, .F. ) ;
#78 = DATE_AND_TIME ( #80, #173 ) ;
#79 = ORIENTED_EDGE ( 'NONE', *, *, #234, .T. ) ;
#80 = CALENDAR_DATE ( 2023, 12, 2 ) ;
#81 = FACE_OUTER_BOUND ( 'NONE', #60, .T. ) ;
#82 = CIRCLE ( 'NONE', #119, 5.100000000000001421 ) ;
#83 = PERSON_AND_ORGANIZATION ( #51, #151 ) ;
#84 = EDGE_LOOP ( 'NONE', ( #163, #160 ) ) ;
#85 = DIRECTION ( 'NONE',  ( -0.000000000000000000, -0.000000000000000000, -1.000000000000000000 ) ) ;
#86 = LINE ( 'NONE', #148, #44 ) ;
#87 = CIRCLE ( 'NONE', #233, 8.000000000000000000 ) ;
#88 = APPLICATION_CONTEXT ( 'configuration controlled 3d designs of mechanical parts and assemblies' ) ;
#89 = CYLINDRICAL_SURFACE ( 'NONE', #114, 8.000000000000000000 ) ;
#90 = DIRECTION ( 'NONE',  ( -1.000000000000000000, 0.000000000000000000, 0.000000000000000000 ) ) ;
#91 = CARTESIAN_POINT ( 'NONE',  ( 0.000000000000000000, 0.000000000000000000, 5.000000000000000000 ) ) ;
#92 = AXIS2_PLACEMENT_3D ( 'NONE', #192, #47, #210 ) ;
#93 = LOCAL_TIME ( 12, 17, 34.00000000000000000, #141 ) ;
#94 = PRODUCT_RELATED_PRODUCT_CATEGORY ( 'detail', '', ( #110 ) ) ;
#95 = PERSON_AND_ORGANIZATION ( #51, #151 ) ;
#96 = PERSON_AND_ORGANIZATION ( #51, #151 ) ;
#97 = CIRCLE ( 'NONE', #129, 5.100000000000001421 ) ;
#98 = AXIS2_PLACEMENT_3D ( 'NONE', #248, #133, #214 ) ;
#99 = PERSON_AND_ORGANIZATION_ROLE ( 'creator' ) ;
#100 = ORIENTED_EDGE ( 'NONE', *, *, #226, .T. ) ;
#101 =( GEOMETRIC_REPRESENTATION_CONTEXT ( 3 ) GLOBAL_UNCERTAINTY_ASSIGNED_CONTEXT ( ( #52 ) ) GLOBAL_UNIT_ASSIGNED_CONTEXT ( ( #134, #113, #231 ) ) REPRESENTATION_CONTEXT ( 'NONE', 'WORKASPACE' ) );
#102 = PERSON_AND_ORGANIZATION ( #51, #151 ) ;
#103 = VERTEX_POINT ( 'NONE', #218 ) ;
#104 = ORIENTED_EDGE ( 'NONE', *, *, #175, .T. ) ;
#105 = VERTEX_POINT ( 'NONE', #14 ) ;
#106 = ORIENTED_EDGE ( 'NONE', *, *, #28, .T. ) ;
#107 = DIRECTION ( 'NONE',  ( 0.000000000000000000, 0.000000000000000000, 1.000000000000000000 ) ) ;
#108 = CC_DESIGN_SECURITY_CLASSIFICATION ( #222, ( #208 ) ) ;
#109 = DIRECTION ( 'NONE',  ( -1.000000000000000000, 0.000000000000000000, 0.000000000000000000 ) ) ;
#110 = PRODUCT ( '51d6', '51d6', '', ( #19 ) ) ;
#111 = DIRECTION ( 'NONE',  ( -0.000000000000000000, -0.000000000000000000, -1.000000000000000000 ) ) ;
#112 = APPLICATION_PROTOCOL_DEFINITION ( 'international standard', 'config_control_design', 1994, #88 ) ;
#113 =( NAMED_UNIT ( * ) PLANE_ANGLE_UNIT ( ) SI_UNIT ( $, .RADIAN. ) );
#114 = AXIS2_PLACEMENT_3D ( 'NONE', #249, #189, #31 ) ;
#115 = COORDINATED_UNIVERSAL_TIME_OFFSET ( 1, 0, .AHEAD. ) ;
#116 = ORIENTED_EDGE ( 'NONE', *, *, #20, .T. ) ;
#117 = DATE_TIME_ROLE ( 'creation_date' ) ;
#118 = EDGE_LOOP ( 'NONE', ( #29, #145, #38, #4 ) ) ;
#119 = AXIS2_PLACEMENT_3D ( 'NONE', #91, #251, #34 ) ;
#120 = DIRECTION ( 'NONE',  ( 0.000000000000000000, 0.000000000000000000, 1.000000000000000000 ) ) ;
#121 = PERSON_AND_ORGANIZATION ( #51, #151 ) ;
#122 = VERTEX_POINT ( 'NONE', #228 ) ;
#123 = ADVANCED_FACE ( 'NONE', ( #149 ), #89, .T. ) ;
#124 = AXIS2_PLACEMENT_3D ( 'NONE', #11, #131, #33 ) ;
#125 = LOCAL_TIME ( 12, 17, 34.00000000000000000, #75 ) ;
#126 = DIRECTION ( 'NONE',  ( -0.000000000000000000, -0.000000000000000000, -1.000000000000000000 ) ) ;
#127 = CC_DESIGN_DATE_AND_TIME_ASSIGNMENT ( #22, #177, ( #222 ) ) ;
#128 = CARTESIAN_POINT ( 'NONE',  ( 5.100000000000001421, 6.245698675651501825E-16, 1000.000000000000000 ) ) ;
#129 = AXIS2_PLACEMENT_3D ( 'NONE', #42, #120, #205 ) ;
#130 = CYLINDRICAL_SURFACE ( 'NONE', #36, 5.100000000000001421 ) ;
#131 = DIRECTION ( 'NONE',  ( 0.000000000000000000, 0.000000000000000000, 1.000000000000000000 ) ) ;
#132 = CC_DESIGN_PERSON_AND_ORGANIZATION_ASSIGNMENT ( #102, #7, ( #222 ) ) ;
#133 = DIRECTION ( 'NONE',  ( 0.000000000000000000, 0.000000000000000000, 1.000000000000000000 ) ) ;
#134 =( LENGTH_UNIT ( ) NAMED_UNIT ( * ) SI_UNIT ( .MILLI., .METRE. ) );
#135 = CIRCLE ( 'NONE', #137, 8.000000000000000000 ) ;
#136 = AXIS2_PLACEMENT_3D ( 'NONE', #237, #54, #140 ) ;
#137 = AXIS2_PLACEMENT_3D ( 'NONE', #63, #147, #191 ) ;
#138 = EDGE_CURVE ( 'NONE', #206, #23, #168, .T. ) ;
#139 = APPROVAL_STATUS ( 'not_yet_approved' ) ;
#140 = DIRECTION ( 'NONE',  ( 1.000000000000000000, 0.000000000000000000, -0.000000000000000000 ) ) ;
#141 = COORDINATED_UNIVERSAL_TIME_OFFSET ( 1, 0, .AHEAD. ) ;
#142 = EDGE_LOOP ( 'NONE', ( #181, #79 ) ) ;
#143 = ORIENTED_EDGE ( 'NONE', *, *, #20, .F. ) ;
#144 = APPROVAL_DATE_TIME ( #1, #74 ) ;
#145 = ORIENTED_EDGE ( 'NONE', *, *, #171, .T. ) ;
#146 = FACE_OUTER_BOUND ( 'NONE', #8, .T. ) ;
#147 = DIRECTION ( 'NONE',  ( 0.000000000000000000, 0.000000000000000000, 1.000000000000000000 ) ) ;
#148 = CARTESIAN_POINT ( 'NONE',  ( -8.000000000000000000, 0.000000000000000000, 5.000000000000000000 ) ) ;
#149 = FACE_OUTER_BOUND ( 'NONE', #223, .T. ) ;
#150 = FACE_OUTER_BOUND ( 'NONE', #6, .T. ) ;
#151 = ORGANIZATION ( 'NEURÈENÝ', 'NEURÈENÝ', '' ) ;
#152 = CARTESIAN_POINT ( 'NONE',  ( 0.000000000000000000, 0.000000000000000000, 0.000000000000000000 ) ) ;
#153 = PERSON_AND_ORGANIZATION_ROLE ( 'design_owner' ) ;
#154 = ADVANCED_FACE ( 'NONE', ( #16 ), #130, .T. ) ;
#155 = CC_DESIGN_APPROVAL ( #252, ( #238 ) ) ;
#156 = DIRECTION ( 'NONE',  ( 1.000000000000000000, 0.000000000000000000, 0.000000000000000000 ) ) ;
#157 = EDGE_CURVE ( 'NONE', #23, #3, #220, .T. ) ;
#158 = APPROVAL_PERSON_ORGANIZATION ( #217, #74, #5 ) ;
#159 = DIRECTION ( 'NONE',  ( 1.000000000000000000, 0.000000000000000000, -0.000000000000000000 ) ) ;
#160 = ORIENTED_EDGE ( 'NONE', *, *, #157, .F. ) ;
#161 = ORIENTED_EDGE ( 'NONE', *, *, #138, .T. ) ;
#162 = PERSON_AND_ORGANIZATION ( #51, #151 ) ;
#163 = ORIENTED_EDGE ( 'NONE', *, *, #196, .F. ) ;
#164 = APPLICATION_CONTEXT ( 'configuration controlled 3d designs of mechanical parts and assemblies' ) ;
#165 = ORIENTED_EDGE ( 'NONE', *, *, #255, .T. ) ;
#166 = CARTESIAN_POINT ( 'NONE',  ( 5.100000000000001421, 6.245698675651501825E-16, 1000.000000000000000 ) ) ;
#167 = ADVANCED_FACE ( 'NONE', ( #15, #227 ), #190, .T. ) ;
#168 = LINE ( 'NONE', #128, #198 ) ;
#169 = CARTESIAN_POINT ( 'NONE',  ( 8.000000000000000000, 9.797174393178825657E-16, 5.000000000000000000 ) ) ;
#170 = CARTESIAN_POINT ( 'NONE',  ( 0.000000000000000000, 0.000000000000000000, 5.000000000000000000 ) ) ;
#171 = EDGE_CURVE ( 'NONE', #122, #240, #32, .T. ) ;
#172 = CARTESIAN_POINT ( 'NONE',  ( 0.000000000000000000, 0.000000000000000000, 1000.000000000000000 ) ) ;
#173 = LOCAL_TIME ( 12, 17, 34.00000000000000000, #53 ) ;
#174 = DIRECTION ( 'NONE',  ( 0.000000000000000000, 0.000000000000000000, 1.000000000000000000 ) ) ;
#175 = EDGE_CURVE ( 'NONE', #201, #240, #235, .T. ) ;
#176 = CARTESIAN_POINT ( 'NONE',  ( 0.000000000000000000, 0.000000000000000000, 0.000000000000000000 ) ) ;
#177 = DATE_TIME_ROLE ( 'classification_date' ) ;
#178 = SHAPE_DEFINITION_REPRESENTATION ( #46, #221 ) ;
#179 = ORIENTED_EDGE ( 'NONE', *, *, #216, .F. ) ;
#180 = CALENDAR_DATE ( 2023, 12, 2 ) ;
#181 = ORIENTED_EDGE ( 'NONE', *, *, #216, .T. ) ;
#182 = ADVANCED_FACE ( 'NONE', ( #150 ), #66, .T. ) ;
#183 = CALENDAR_DATE ( 2023, 12, 2 ) ;
#184 = CARTESIAN_POINT ( 'NONE',  ( -5.100000000000001421, 0.000000000000000000, 1000.000000000000000 ) ) ;
#185 = AXIS2_PLACEMENT_3D ( 'NONE', #170, #107, #68 ) ;
#186 = APPROVAL_PERSON_ORGANIZATION ( #162, #203, #243 ) ;
#187 = ORIENTED_EDGE ( 'NONE', *, *, #157, .T. ) ;
#188 = CC_DESIGN_DATE_AND_TIME_ASSIGNMENT ( #78, #117, ( #238 ) ) ;
#189 = DIRECTION ( 'NONE',  ( -0.000000000000000000, -0.000000000000000000, -1.000000000000000000 ) ) ;
#190 = PLANE ( 'NONE',  #92 ) ;
#191 = DIRECTION ( 'NONE',  ( 1.000000000000000000, 0.000000000000000000, 0.000000000000000000 ) ) ;
#192 = CARTESIAN_POINT ( 'NONE',  ( 0.000000000000000000, 0.000000000000000000, 5.000000000000000000 ) ) ;
#193 = ADVANCED_FACE ( 'NONE', ( #250 ), #213, .T. ) ;
#194 = DIRECTION ( 'NONE',  ( -1.000000000000000000, 0.000000000000000000, 0.000000000000000000 ) ) ;
#195 = CC_DESIGN_APPROVAL ( #74, ( #222 ) ) ;
#196 = EDGE_CURVE ( 'NONE', #3, #23, #82, .T. ) ;
#197 = APPROVAL_ROLE ( '' ) ;
#198 = VECTOR ( 'NONE', #126, 1000.000000000000000 ) ;
#199 = AXIS2_PLACEMENT_3D ( 'NONE', #176, #174, #156 ) ;
#200 = PERSON_AND_ORGANIZATION_ROLE ( 'design_supplier' ) ;
#201 = VERTEX_POINT ( 'NONE', #70 ) ;
#202 = SECURITY_CLASSIFICATION_LEVEL ( 'unclassified' ) ;
#203 = APPROVAL ( #139, 'NEURÈENÝ' ) ;
#204 = ORIENTED_EDGE ( 'NONE', *, *, #212, .F. ) ;
#205 = DIRECTION ( 'NONE',  ( 1.000000000000000000, 0.000000000000000000, 0.000000000000000000 ) ) ;
#206 = VERTEX_POINT ( 'NONE', #166 ) ;
#207 = CC_DESIGN_PERSON_AND_ORGANIZATION_ASSIGNMENT ( #55, #200, ( #208 ) ) ;
#208 = PRODUCT_DEFINITION_FORMATION_WITH_SPECIFIED_SOURCE ( 'LIBOVOLNÝ', '', #110, .NOT_KNOWN. ) ;
#209 = DIRECTION ( 'NONE',  ( -0.000000000000000000, -0.000000000000000000, -1.000000000000000000 ) ) ;
#210 = DIRECTION ( 'NONE',  ( 1.000000000000000000, 0.000000000000000000, -0.000000000000000000 ) ) ;
#211 = DIRECTION ( 'NONE',  ( 1.000000000000000000, 0.000000000000000000, 0.000000000000000000 ) ) ;
#212 = EDGE_CURVE ( 'NONE', #240, #201, #87, .T. ) ;
#213 = CYLINDRICAL_SURFACE ( 'NONE', #215, 8.000000000000000000 ) ;
#214 = DIRECTION ( 'NONE',  ( 1.000000000000000000, 0.000000000000000000, 0.000000000000000000 ) ) ;
#215 = AXIS2_PLACEMENT_3D ( 'NONE', #65, #111, #194 ) ;
#216 = EDGE_CURVE ( 'NONE', #105, #122, #13, .T. ) ;
#217 = PERSON_AND_ORGANIZATION ( #51, #151 ) ;
#218 = CARTESIAN_POINT ( 'NONE',  ( -5.100000000000001421, 0.000000000000000000, 1000.000000000000000 ) ) ;
#219 = ORIENTED_EDGE ( 'NONE', *, *, #28, .F. ) ;
#220 = CIRCLE ( 'NONE', #185, 5.100000000000001421 ) ;
#221 = ADVANCED_BREP_SHAPE_REPRESENTATION ( '51d6', ( #57, #199 ), #101 ) ;
#222 = SECURITY_CLASSIFICATION ( '', '', #202 ) ;
#223 = EDGE_LOOP ( 'NONE', ( #242, #179, #165, #104 ) ) ;
#224 = DIRECTION ( 'NONE',  ( -0.000000000000000000, -0.000000000000000000, -1.000000000000000000 ) ) ;
#225 = DIRECTION ( 'NONE',  ( -0.000000000000000000, -0.000000000000000000, -1.000000000000000000 ) ) ;
#226 = EDGE_CURVE ( 'NONE', #103, #206, #254, .T. ) ;
#227 = FACE_OUTER_BOUND ( 'NONE', #142, .T. ) ;
#228 = CARTESIAN_POINT ( 'NONE',  ( 8.000000000000000000, 9.797174393178825657E-16, 5.000000000000000000 ) ) ;
#229 = DIRECTION ( 'NONE',  ( 0.000000000000000000, 0.000000000000000000, 1.000000000000000000 ) ) ;
#230 = CC_DESIGN_PERSON_AND_ORGANIZATION_ASSIGNMENT ( #83, #99, ( #238 ) ) ;
#231 =( NAMED_UNIT ( * ) SI_UNIT ( $, .STERADIAN. ) SOLID_ANGLE_UNIT ( ) );
#232 = APPLICATION_PROTOCOL_DEFINITION ( 'international standard', 'config_control_design', 1994, #164 ) ;
#233 = AXIS2_PLACEMENT_3D ( 'NONE', #152, #247, #211 ) ;
#234 = EDGE_CURVE ( 'NONE', #122, #105, #135, .T. ) ;
#235 = CIRCLE ( 'NONE', #124, 8.000000000000000000 ) ;
#236 = CALENDAR_DATE ( 2023, 12, 2 ) ;
#237 = CARTESIAN_POINT ( 'NONE',  ( 0.000000000000000000, 0.000000000000000000, 1000.000000000000000 ) ) ;
#238 = PRODUCT_DEFINITION ( 'NEZNÁMÝ', '', #208, #26 ) ;
#239 = CALENDAR_DATE ( 2023, 12, 2 ) ;
#240 = VERTEX_POINT ( 'NONE', #45 ) ;
#241 = DATE_AND_TIME ( #239, #37 ) ;
#242 = ORIENTED_EDGE ( 'NONE', *, *, #171, .F. ) ;
#243 = APPROVAL_ROLE ( '' ) ;
#244 = CARTESIAN_POINT ( 'NONE',  ( 0.000000000000000000, 0.000000000000000000, 0.000000000000000000 ) ) ;
#245 = PERSON_AND_ORGANIZATION_ROLE ( 'creator' ) ;
#246 = LINE ( 'NONE', #184, #72 ) ;
#247 = DIRECTION ( 'NONE',  ( 0.000000000000000000, 0.000000000000000000, 1.000000000000000000 ) ) ;
#248 = CARTESIAN_POINT ( 'NONE',  ( 0.000000000000000000, 0.000000000000000000, 1000.000000000000000 ) ) ;
#249 = CARTESIAN_POINT ( 'NONE',  ( 0.000000000000000000, 0.000000000000000000, 5.000000000000000000 ) ) ;
#250 = FACE_OUTER_BOUND ( 'NONE', #118, .T. ) ;
#251 = DIRECTION ( 'NONE',  ( 0.000000000000000000, 0.000000000000000000, 1.000000000000000000 ) ) ;
#252 = APPROVAL ( #253, 'NEURÈENÝ' ) ;
#253 = APPROVAL_STATUS ( 'not_yet_approved' ) ;
#254 = CIRCLE ( 'NONE', #98, 5.100000000000001421 ) ;
#255 = EDGE_CURVE ( 'NONE', #105, #201, #86, .T. ) ;
ENDSEC;
END-ISO-10303-21;
