ISO-10303-21;
HEADER;
FILE_DESCRIPTION (( 'STEP AP203' ),
    '1' );
FILE_NAME ('fd48.STEP',
    '2022-07-07T09:51:42',
    ( '' ),
    ( '' ),
    'SwSTEP 2.0',
    'SolidWorks 2019',
    '' );
FILE_SCHEMA (( 'CONFIG_CONTROL_DESIGN' ));
ENDSEC;

DATA;
#1 = DIRECTION ( 'NONE',  ( -0.000000000000000000, -0.000000000000000000, -1.000000000000000000 ) ) ;
#2 = EDGE_CURVE ( 'NONE', #85, #72, #213, .T. ) ;
#3 = CARTESIAN_POINT ( 'NONE',  ( 0.000000000000000000, 0.000000000000000000, 5.000000000000000000 ) ) ;
#4 = CARTESIAN_POINT ( 'NONE',  ( -5.300000000000000711, 6.490628035480972910E-16, 5.199999999999982414 ) ) ;
#5 = CARTESIAN_POINT ( 'NONE',  ( 8.000000000000000000, 9.797174393178825657E-16, 5.000000000000000000 ) ) ;
#6 = COORDINATED_UNIVERSAL_TIME_OFFSET ( 1, 0, .AHEAD. ) ;
#7 = CYLINDRICAL_SURFACE ( 'NONE', #210, 5.100000000000001421 ) ;
#8 = AXIS2_PLACEMENT_3D ( 'NONE', #221, #97, #285 ) ;
#9 = CARTESIAN_POINT ( 'NONE',  ( 0.000000000000000000, 0.000000000000000000, 5.000000000000000000 ) ) ;
#10 = CIRCLE ( 'NONE', #186, 5.300000000000000711 ) ;
#11 = SECURITY_CLASSIFICATION ( '', '', #57 ) ;
#12 = DIRECTION ( 'NONE',  ( 1.000000000000000000, 0.000000000000000000, 0.000000000000000000 ) ) ;
#13 = DATE_AND_TIME ( #153, #163 ) ;
#14 = ADVANCED_FACE ( 'NONE', ( #237, #24 ), #287, .T. ) ;
#15 = AXIS2_PLACEMENT_3D ( 'NONE', #204, #152, #54 ) ;
#16 = AXIS2_PLACEMENT_3D ( 'NONE', #235, #189, #115 ) ;
#17 = APPLICATION_PROTOCOL_DEFINITION ( 'international standard', 'config_control_design', 1994, #229 ) ;
#18 = APPROVAL ( #109, 'NEURÈENÝ' ) ;
#19 = CIRCLE ( 'NONE', #8, 5.100000000000001421 ) ;
#20 = CARTESIAN_POINT ( 'NONE',  ( 0.000000000000000000, 0.000000000000000000, 5.199999999999982414 ) ) ;
#21 = ORIENTED_EDGE ( 'NONE', *, *, #2, .F. ) ;
#22 = CARTESIAN_POINT ( 'NONE',  ( -8.000000000000000000, 0.000000000000000000, 0.000000000000000000 ) ) ;
#23 = ADVANCED_FACE ( 'NONE', ( #264 ), #31, .T. ) ;
#24 = FACE_OUTER_BOUND ( 'NONE', #281, .T. ) ;
#25 = EDGE_LOOP ( 'NONE', ( #95, #194, #294, #47 ) ) ;
#26 = ORIENTED_EDGE ( 'NONE', *, *, #2, .T. ) ;
#27 = EDGE_CURVE ( 'NONE', #135, #124, #304, .T. ) ;
#28 = CARTESIAN_POINT ( 'NONE',  ( 0.000000000000000000, 0.000000000000000000, 635.0000000000000000 ) ) ;
#29 = DIRECTION ( 'NONE',  ( -0.000000000000000000, -0.000000000000000000, -1.000000000000000000 ) ) ;
#30 = CC_DESIGN_APPROVAL ( #18, ( #191 ) ) ;
#31 = CYLINDRICAL_SURFACE ( 'NONE', #40, 8.000000000000000000 ) ;
#32 = PERSON_AND_ORGANIZATION ( #129, #298 ) ;
#33 = CARTESIAN_POINT ( 'NONE',  ( 5.100000000000001421, 6.245698675651502811E-16, 5.199999999999982414 ) ) ;
#34 = DIRECTION ( 'NONE',  ( -0.000000000000000000, -0.000000000000000000, -1.000000000000000000 ) ) ;
#35 = DIRECTION ( 'NONE',  ( 0.000000000000000000, 0.000000000000000000, 1.000000000000000000 ) ) ;
#36 = AXIS2_PLACEMENT_3D ( 'NONE', #20, #256, #66 ) ;
#37 = CALENDAR_DATE ( 2022, 7, 7 ) ;
#38 = CARTESIAN_POINT ( 'NONE',  ( 0.000000000000000000, 0.000000000000000000, 5.000000000000000000 ) ) ;
#39 = EDGE_LOOP ( 'NONE', ( #51, #62, #286, #184 ) ) ;
#40 = AXIS2_PLACEMENT_3D ( 'NONE', #3, #49, #261 ) ;
#41 = AXIS2_PLACEMENT_3D ( 'NONE', #176, #35, #164 ) ;
#42 = EDGE_CURVE ( 'NONE', #135, #218, #128, .T. ) ;
#43 = DIRECTION ( 'NONE',  ( 0.000000000000000000, 0.000000000000000000, 1.000000000000000000 ) ) ;
#44 = CARTESIAN_POINT ( 'NONE',  ( 0.000000000000000000, 0.000000000000000000, 5.199999999999982414 ) ) ;
#45 = DESIGN_CONTEXT ( 'detailed design', #229, 'design' ) ;
#46 = AXIS2_PLACEMENT_3D ( 'NONE', #38, #80, #272 ) ;
#47 = ORIENTED_EDGE ( 'NONE', *, *, #253, .F. ) ;
#48 = AXIS2_PLACEMENT_3D ( 'NONE', #130, #228, #224 ) ;
#49 = DIRECTION ( 'NONE',  ( -0.000000000000000000, -0.000000000000000000, -1.000000000000000000 ) ) ;
#50 = EDGE_CURVE ( 'NONE', #124, #135, #19, .T. ) ;
#51 = ORIENTED_EDGE ( 'NONE', *, *, #42, .F. ) ;
#52 = SHAPE_DEFINITION_REPRESENTATION ( #209, #251 ) ;
#53 = CARTESIAN_POINT ( 'NONE',  ( 0.000000000000000000, 0.000000000000000000, 635.0000000000000000 ) ) ;
#54 = DIRECTION ( 'NONE',  ( 1.000000000000000000, 0.000000000000000000, -0.000000000000000000 ) ) ;
#55 = COORDINATED_UNIVERSAL_TIME_OFFSET ( 1, 0, .AHEAD. ) ;
#56 = CARTESIAN_POINT ( 'NONE',  ( 5.100000000000001421, 6.245698675651502811E-16, 635.0000000000000000 ) ) ;
#57 = SECURITY_CLASSIFICATION_LEVEL ( 'unclassified' ) ;
#58 = CARTESIAN_POINT ( 'NONE',  ( -5.100000000000001421, 0.000000000000000000, 635.0000000000000000 ) ) ;
#59 = AXIS2_PLACEMENT_3D ( 'NONE', #53, #147, #179 ) ;
#60 = APPROVAL_DATE_TIME ( #222, #183 ) ;
#61 = DIRECTION ( 'NONE',  ( -0.000000000000000000, -0.000000000000000000, -1.000000000000000000 ) ) ;
#62 = ORIENTED_EDGE ( 'NONE', *, *, #50, .F. ) ;
#63 = MANIFOLD_SOLID_BREP ( 'Zaoblit1', #104 ) ;
#64 = ADVANCED_FACE ( 'NONE', ( #238 ), #98, .T. ) ;
#65 = VERTEX_POINT ( 'NONE', #5 ) ;
#66 = DIRECTION ( 'NONE',  ( 1.000000000000000000, 0.000000000000000000, 0.000000000000000000 ) ) ;
#67 = COORDINATED_UNIVERSAL_TIME_OFFSET ( 1, 0, .AHEAD. ) ;
#68 = ADVANCED_FACE ( 'NONE', ( #223 ), #293, .T. ) ;
#69 = ORIENTED_EDGE ( 'NONE', *, *, #27, .T. ) ;
#70 = CIRCLE ( 'NONE', #185, 8.000000000000000000 ) ;
#71 = CC_DESIGN_PERSON_AND_ORGANIZATION_ASSIGNMENT ( #305, #89, ( #250 ) ) ;
#72 = VERTEX_POINT ( 'NONE', #79 ) ;
#73 = EDGE_LOOP ( 'NONE', ( #125, #307 ) ) ;
#74 = PERSON_AND_ORGANIZATION ( #129, #298 ) ;
#75 = ORIENTED_EDGE ( 'NONE', *, *, #241, .F. ) ;
#76 = PERSON_AND_ORGANIZATION_ROLE ( 'design_supplier' ) ;
#77 = CARTESIAN_POINT ( 'NONE',  ( 0.000000000000000000, 0.000000000000000000, 635.0000000000000000 ) ) ;
#78 = AXIS2_PLACEMENT_3D ( 'NONE', #44, #188, #161 ) ;
#79 = CARTESIAN_POINT ( 'NONE',  ( -5.300000000000000711, 6.490628035480971924E-16, 4.999999999999991118 ) ) ;
#80 = DIRECTION ( 'NONE',  ( -0.000000000000000000, -0.000000000000000000, -1.000000000000000000 ) ) ;
#81 = APPROVAL_STATUS ( 'not_yet_approved' ) ;
#82 = UNCERTAINTY_MEASURE_WITH_UNIT (LENGTH_MEASURE( 1.000000000000000082E-05 ), #158, 'distance_accuracy_value', 'NONE');
#83 = DIRECTION ( 'NONE',  ( -1.000000000000000000, 0.000000000000000000, 0.000000000000000000 ) ) ;
#84 = CIRCLE ( 'NONE', #148, 5.300000000000000711 ) ;
#85 = VERTEX_POINT ( 'NONE', #290 ) ;
#86 = CC_DESIGN_APPROVAL ( #146, ( #208 ) ) ;
#87 = ORIENTED_EDGE ( 'NONE', *, *, #117, .T. ) ;
#88 = EDGE_CURVE ( 'NONE', #299, #284, #70, .T. ) ;
#89 = PERSON_AND_ORGANIZATION_ROLE ( 'design_owner' ) ;
#90 = LOCAL_TIME ( 11, 51, 42.00000000000000000, #6 ) ;
#91 =( NAMED_UNIT ( * ) SI_UNIT ( $, .STERADIAN. ) SOLID_ANGLE_UNIT ( ) );
#92 = APPROVAL_DATE_TIME ( #137, #146 ) ;
#93 = AXIS2_PLACEMENT_3D ( 'NONE', #166, #123, #121 ) ;
#94 = DIRECTION ( 'NONE',  ( -0.000000000000000000, -0.000000000000000000, -1.000000000000000000 ) ) ;
#95 = ORIENTED_EDGE ( 'NONE', *, *, #111, .F. ) ;
#96 = ORIENTED_EDGE ( 'NONE', *, *, #27, .F. ) ;
#97 = DIRECTION ( 'NONE',  ( 0.000000000000000000, 0.000000000000000000, 1.000000000000000000 ) ) ;
#98 = CYLINDRICAL_SURFACE ( 'NONE', #59, 5.100000000000001421 ) ;
#99 = ADVANCED_FACE ( 'NONE', ( #242 ), #106, .T. ) ;
#100 = CARTESIAN_POINT ( 'NONE',  ( 8.000000000000000000, 9.797174393178825657E-16, 5.000000000000000000 ) ) ;
#101 = CC_DESIGN_PERSON_AND_ORGANIZATION_ASSIGNMENT ( #150, #76, ( #191 ) ) ;
#102 = COORDINATED_UNIVERSAL_TIME_OFFSET ( 1, 0, .AHEAD. ) ;
#103 = CARTESIAN_POINT ( 'NONE',  ( 0.000000000000000000, 0.000000000000000000, 5.000000000000000000 ) ) ;
#104 = CLOSED_SHELL ( 'NONE', ( #212, #114, #68, #23, #14, #187, #64, #99, #283 ) ) ;
#105 = CC_DESIGN_SECURITY_CLASSIFICATION ( #11, ( #191 ) ) ;
#106 = PLANE ( 'NONE',  #195 ) ;
#107 = APPROVAL_ROLE ( '' ) ;
#108 = CARTESIAN_POINT ( 'NONE',  ( 5.300000000000000711, 0.000000000000000000, 5.199999999999982414 ) ) ;
#109 = APPROVAL_STATUS ( 'not_yet_approved' ) ;
#110 = LOCAL_TIME ( 11, 51, 42.00000000000000000, #102 ) ;
#111 = EDGE_CURVE ( 'NONE', #65, #169, #246, .T. ) ;
#112 = CC_DESIGN_DATE_AND_TIME_ASSIGNMENT ( #200, #240, ( #11 ) ) ;
#113 = APPROVAL_ROLE ( '' ) ;
#114 = ADVANCED_FACE ( 'NONE', ( #270 ), #7, .T. ) ;
#115 = DIRECTION ( 'NONE',  ( 1.000000000000000000, 0.000000000000000000, 0.000000000000000000 ) ) ;
#116 = ORIENTED_EDGE ( 'NONE', *, *, #241, .T. ) ;
#117 = EDGE_CURVE ( 'NONE', #72, #239, #84, .T. ) ;
#118 = CARTESIAN_POINT ( 'NONE',  ( -5.100000000000001421, 0.000000000000000000, 635.0000000000000000 ) ) ;
#119 = DIRECTION ( 'NONE',  ( -0.000000000000000000, -0.000000000000000000, -1.000000000000000000 ) ) ;
#120 = VECTOR ( 'NONE', #1, 1000.000000000000000 ) ;
#121 = DIRECTION ( 'NONE',  ( 1.000000000000000000, 0.000000000000000000, -0.000000000000000000 ) ) ;
#122 = VECTOR ( 'NONE', #119, 1000.000000000000000 ) ;
#123 = DIRECTION ( 'NONE',  ( 0.000000000000000000, 0.000000000000000000, 1.000000000000000000 ) ) ;
#124 = VERTEX_POINT ( 'NONE', #58 ) ;
#125 = ORIENTED_EDGE ( 'NONE', *, *, #88, .F. ) ;
#126 = PERSON_AND_ORGANIZATION ( #129, #298 ) ;
#127 = DIRECTION ( 'NONE',  ( 1.000000000000000000, 0.000000000000000000, 0.000000000000000000 ) ) ;
#128 = LINE ( 'NONE', #172, #120 ) ;
#129 = PERSON ( 'NEURÈENÝ', 'NEURÈENÝ', 'NEURÈENÝ', ('NEURÈENÝ'), ('NEURÈENÝ'), ('NEURÈENÝ') ) ;
#130 = CARTESIAN_POINT ( 'NONE',  ( 0.000000000000000000, 0.000000000000000000, 5.199999999999982414 ) ) ;
#131 = CARTESIAN_POINT ( 'NONE',  ( 0.000000000000000000, 0.000000000000000000, 5.000000000000000000 ) ) ;
#132 = TOROIDAL_SURFACE ( 'NONE', #36, 5.300000000000000711, 0.2000000000000000111 ) ;
#133 = CARTESIAN_POINT ( 'NONE',  ( 0.000000000000000000, 0.000000000000000000, 635.0000000000000000 ) ) ;
#134 = DIRECTION ( 'NONE',  ( 1.000000000000000000, 0.000000000000000000, -0.000000000000000000 ) ) ;
#135 = VERTEX_POINT ( 'NONE', #56 ) ;
#136 = TOROIDAL_SURFACE ( 'NONE', #48, 5.300000000000000711, 0.2000000000000000111 ) ;
#137 = DATE_AND_TIME ( #301, #244 ) ;
#138 = LOCAL_TIME ( 11, 51, 42.00000000000000000, #55 ) ;
#139 = CARTESIAN_POINT ( 'NONE',  ( -8.000000000000000000, 0.000000000000000000, 5.000000000000000000 ) ) ;
#140 = EDGE_CURVE ( 'NONE', #65, #284, #296, .T. ) ;
#141 = ORIENTED_EDGE ( 'NONE', *, *, #211, .T. ) ;
#142 = EDGE_LOOP ( 'NONE', ( #297, #87 ) ) ;
#143 = AXIS2_PLACEMENT_3D ( 'NONE', #230, #151, #268 ) ;
#144 = DIRECTION ( 'NONE',  ( 0.000000000000000000, 0.000000000000000000, 1.000000000000000000 ) ) ;
#145 = ORIENTED_EDGE ( 'NONE', *, *, #167, .F. ) ;
#146 = APPROVAL ( #255, 'NEURÈENÝ' ) ;
#147 = DIRECTION ( 'NONE',  ( -0.000000000000000000, -0.000000000000000000, -1.000000000000000000 ) ) ;
#148 = AXIS2_PLACEMENT_3D ( 'NONE', #9, #61, #175 ) ;
#149 = DIRECTION ( 'NONE',  ( 0.000000000000000000, -1.000000000000000000, 0.000000000000000000 ) ) ;
#150 = PERSON_AND_ORGANIZATION ( #129, #298 ) ;
#151 = DIRECTION ( 'NONE',  ( 0.000000000000000000, 0.000000000000000000, 1.000000000000000000 ) ) ;
#152 = DIRECTION ( 'NONE',  ( 0.000000000000000000, 0.000000000000000000, 1.000000000000000000 ) ) ;
#153 = CALENDAR_DATE ( 2022, 7, 7 ) ;
#154 = DIRECTION ( 'NONE',  ( 1.000000000000000000, 0.000000000000000000, 0.000000000000000000 ) ) ;
#155 = ORIENTED_EDGE ( 'NONE', *, *, #260, .F. ) ;
#156 = ORIENTED_EDGE ( 'NONE', *, *, #111, .T. ) ;
#157 = CIRCLE ( 'NONE', #143, 5.100000000000001421 ) ;
#158 =( LENGTH_UNIT ( ) NAMED_UNIT ( * ) SI_UNIT ( .MILLI., .METRE. ) );
#159 = CC_DESIGN_PERSON_AND_ORGANIZATION_ASSIGNMENT ( #32, #205, ( #191 ) ) ;
#160 = PERSON_AND_ORGANIZATION ( #129, #298 ) ;
#161 = DIRECTION ( 'NONE',  ( 1.000000000000000000, 0.000000000000000000, 0.000000000000000000 ) ) ;
#162 = AXIS2_PLACEMENT_3D ( 'NONE', #108, #149, #247 ) ;
#163 = LOCAL_TIME ( 11, 51, 42.00000000000000000, #292 ) ;
#164 = DIRECTION ( 'NONE',  ( 1.000000000000000000, 0.000000000000000000, 0.000000000000000000 ) ) ;
#165 = DIRECTION ( 'NONE',  ( -1.000000000000000000, 1.224646799147353454E-16, 0.000000000000000000 ) ) ;
#166 = CARTESIAN_POINT ( 'NONE',  ( 0.000000000000000000, 0.000000000000000000, 5.000000000000000000 ) ) ;
#167 = EDGE_CURVE ( 'NONE', #85, #218, #157, .T. ) ;
#168 = CC_DESIGN_APPROVAL ( #183, ( #11 ) ) ;
#169 = VERTEX_POINT ( 'NONE', #203 ) ;
#170 = CC_DESIGN_DATE_AND_TIME_ASSIGNMENT ( #271, #273, ( #208 ) ) ;
#171 = PERSON_AND_ORGANIZATION ( #129, #298 ) ;
#172 = CARTESIAN_POINT ( 'NONE',  ( 5.100000000000001421, 6.245698675651502811E-16, 635.0000000000000000 ) ) ;
#173 = CARTESIAN_POINT ( 'NONE',  ( 0.000000000000000000, 0.000000000000000000, 0.000000000000000000 ) ) ;
#174 = CIRCLE ( 'NONE', #41, 8.000000000000000000 ) ;
#175 = DIRECTION ( 'NONE',  ( 1.000000000000000000, 0.000000000000000000, 0.000000000000000000 ) ) ;
#176 = CARTESIAN_POINT ( 'NONE',  ( 0.000000000000000000, 0.000000000000000000, 5.000000000000000000 ) ) ;
#177 = CALENDAR_DATE ( 2022, 7, 7 ) ;
#178 = AXIS2_PLACEMENT_3D ( 'NONE', #4, #193, #165 ) ;
#179 = DIRECTION ( 'NONE',  ( -1.000000000000000000, 0.000000000000000000, 0.000000000000000000 ) ) ;
#180 = ORIENTED_EDGE ( 'NONE', *, *, #88, .T. ) ;
#181 = EDGE_CURVE ( 'NONE', #239, #72, #10, .T. ) ;
#182 = APPROVAL_PERSON_ORGANIZATION ( #160, #146, #113 ) ;
#183 = APPROVAL ( #81, 'NEURÈENÝ' ) ;
#184 = ORIENTED_EDGE ( 'NONE', *, *, #167, .T. ) ;
#185 = AXIS2_PLACEMENT_3D ( 'NONE', #173, #249, #154 ) ;
#186 = AXIS2_PLACEMENT_3D ( 'NONE', #131, #29, #12 ) ;
#187 = ADVANCED_FACE ( 'NONE', ( #201 ), #225, .F. ) ;
#188 = DIRECTION ( 'NONE',  ( 0.000000000000000000, 0.000000000000000000, 1.000000000000000000 ) ) ;
#189 = DIRECTION ( 'NONE',  ( 0.000000000000000000, 0.000000000000000000, 1.000000000000000000 ) ) ;
#190 = CIRCLE ( 'NONE', #162, 0.1999999999999996503 ) ;
#191 = PRODUCT_DEFINITION_FORMATION_WITH_SPECIFIED_SOURCE ( 'LIBOVOLNÝ', '', #250, .NOT_KNOWN. ) ;
#192 = CARTESIAN_POINT ( 'NONE',  ( 8.000000000000000000, 9.797174393178825657E-16, 0.000000000000000000 ) ) ;
#193 = DIRECTION ( 'NONE',  ( 1.224646799147353207E-16, 1.000000000000000000, -0.000000000000000000 ) ) ;
#194 = ORIENTED_EDGE ( 'NONE', *, *, #140, .T. ) ;
#195 = AXIS2_PLACEMENT_3D ( 'NONE', #133, #274, #134 ) ;
#196 = APPLICATION_CONTEXT ( 'configuration controlled 3d designs of mechanical parts and assemblies' ) ;
#197 = EDGE_LOOP ( 'NONE', ( #275, #265, #267, #180 ) ) ;
#198 = ORIENTED_EDGE ( 'NONE', *, *, #181, .F. ) ;
#199 = CC_DESIGN_PERSON_AND_ORGANIZATION_ASSIGNMENT ( #126, #202, ( #11 ) ) ;
#200 = DATE_AND_TIME ( #289, #110 ) ;
#201 = FACE_OUTER_BOUND ( 'NONE', #73, .T. ) ;
#202 = PERSON_AND_ORGANIZATION_ROLE ( 'classification_officer' ) ;
#203 = CARTESIAN_POINT ( 'NONE',  ( -8.000000000000000000, 0.000000000000000000, 5.000000000000000000 ) ) ;
#204 = CARTESIAN_POINT ( 'NONE',  ( 0.000000000000000000, 0.000000000000000000, 0.000000000000000000 ) ) ;
#205 = PERSON_AND_ORGANIZATION_ROLE ( 'creator' ) ;
#206 = FACE_OUTER_BOUND ( 'NONE', #302, .T. ) ;
#207 = PERSON_AND_ORGANIZATION_ROLE ( 'creator' ) ;
#208 = PRODUCT_DEFINITION ( 'NEZNÁMÝ', '', #191, #45 ) ;
#209 = PRODUCT_DEFINITION_SHAPE ( 'NONE', 'NONE',  #208 ) ;
#210 = AXIS2_PLACEMENT_3D ( 'NONE', #77, #245, #83 ) ;
#211 = EDGE_CURVE ( 'NONE', #218, #239, #190, .T. ) ;
#212 = ADVANCED_FACE ( 'NONE', ( #206 ), #136, .F. ) ;
#213 = CIRCLE ( 'NONE', #178, 0.1999999999999996503 ) ;
#214 = MECHANICAL_CONTEXT ( 'NONE', #196, 'mechanical' ) ;
#215 = ORIENTED_EDGE ( 'NONE', *, *, #211, .F. ) ;
#216 = CARTESIAN_POINT ( 'NONE',  ( 5.300000000000000711, 0.000000000000000000, 4.999999999999991118 ) ) ;
#217 = EDGE_LOOP ( 'NONE', ( #96, #236, #116, #155 ) ) ;
#218 = VERTEX_POINT ( 'NONE', #33 ) ;
#219 = ORIENTED_EDGE ( 'NONE', *, *, #117, .F. ) ;
#220 = PRODUCT_RELATED_PRODUCT_CATEGORY ( 'detail', '', ( #250 ) ) ;
#221 = CARTESIAN_POINT ( 'NONE',  ( 0.000000000000000000, 0.000000000000000000, 635.0000000000000000 ) ) ;
#222 = DATE_AND_TIME ( #177, #138 ) ;
#223 = FACE_OUTER_BOUND ( 'NONE', #25, .T. ) ;
#224 = DIRECTION ( 'NONE',  ( 1.000000000000000000, 0.000000000000000000, 0.000000000000000000 ) ) ;
#225 = PLANE ( 'NONE',  #15 ) ;
#226 = CIRCLE ( 'NONE', #262, 8.000000000000000000 ) ;
#227 = EDGE_CURVE ( 'NONE', #169, #65, #174, .T. ) ;
#228 = DIRECTION ( 'NONE',  ( 0.000000000000000000, 0.000000000000000000, 1.000000000000000000 ) ) ;
#229 = APPLICATION_CONTEXT ( 'configuration controlled 3d designs of mechanical parts and assemblies' ) ;
#230 = CARTESIAN_POINT ( 'NONE',  ( 0.000000000000000000, 0.000000000000000000, 5.199999999999982414 ) ) ;
#231 = EDGE_LOOP ( 'NONE', ( #232, #69 ) ) ;
#232 = ORIENTED_EDGE ( 'NONE', *, *, #50, .T. ) ;
#233 = AXIS2_PLACEMENT_3D ( 'NONE', #103, #288, #127 ) ;
#234 = LINE ( 'NONE', #139, #254 ) ;
#235 = CARTESIAN_POINT ( 'NONE',  ( 0.000000000000000000, 0.000000000000000000, 0.000000000000000000 ) ) ;
#236 = ORIENTED_EDGE ( 'NONE', *, *, #42, .T. ) ;
#237 = FACE_BOUND ( 'NONE', #142, .T. ) ;
#238 = FACE_OUTER_BOUND ( 'NONE', #39, .T. ) ;
#239 = VERTEX_POINT ( 'NONE', #216 ) ;
#240 = DATE_TIME_ROLE ( 'classification_date' ) ;
#241 = EDGE_CURVE ( 'NONE', #218, #85, #291, .T. ) ;
#242 = FACE_OUTER_BOUND ( 'NONE', #231, .T. ) ;
#243 = DIRECTION ( 'NONE',  ( 1.000000000000000000, 0.000000000000000000, 0.000000000000000000 ) ) ;
#244 = LOCAL_TIME ( 11, 51, 42.00000000000000000, #67 ) ;
#245 = DIRECTION ( 'NONE',  ( -0.000000000000000000, -0.000000000000000000, -1.000000000000000000 ) ) ;
#246 = CIRCLE ( 'NONE', #233, 8.000000000000000000 ) ;
#247 = DIRECTION ( 'NONE',  ( 0.000000000000000000, 0.000000000000000000, -1.000000000000000000 ) ) ;
#248 = EDGE_LOOP ( 'NONE', ( #21, #75, #141, #219 ) ) ;
#249 = DIRECTION ( 'NONE',  ( 0.000000000000000000, 0.000000000000000000, 1.000000000000000000 ) ) ;
#250 = PRODUCT ( 'fd48', 'fd48', '', ( #214 ) ) ;
#251 = ADVANCED_BREP_SHAPE_REPRESENTATION ( 'fd48', ( #63, #16 ), #263 ) ;
#252 = AXIS2_PLACEMENT_3D ( 'NONE', #28, #144, #243 ) ;
#253 = EDGE_CURVE ( 'NONE', #169, #299, #234, .T. ) ;
#254 = VECTOR ( 'NONE', #94, 1000.000000000000000 ) ;
#255 = APPROVAL_STATUS ( 'not_yet_approved' ) ;
#256 = DIRECTION ( 'NONE',  ( 0.000000000000000000, 0.000000000000000000, 1.000000000000000000 ) ) ;
#257 = PERSON_AND_ORGANIZATION ( #129, #298 ) ;
#258 = APPROVAL_PERSON_ORGANIZATION ( #171, #18, #107 ) ;
#259 = CARTESIAN_POINT ( 'NONE',  ( 0.000000000000000000, 0.000000000000000000, 0.000000000000000000 ) ) ;
#260 = EDGE_CURVE ( 'NONE', #124, #85, #280, .T. ) ;
#261 = DIRECTION ( 'NONE',  ( -1.000000000000000000, 0.000000000000000000, 0.000000000000000000 ) ) ;
#262 = AXIS2_PLACEMENT_3D ( 'NONE', #259, #43, #303 ) ;
#263 =( GEOMETRIC_REPRESENTATION_CONTEXT ( 3 ) GLOBAL_UNCERTAINTY_ASSIGNED_CONTEXT ( ( #82 ) ) GLOBAL_UNIT_ASSIGNED_CONTEXT ( ( #158, #282, #91 ) ) REPRESENTATION_CONTEXT ( 'NONE', 'WORKASPACE' ) );
#264 = FACE_OUTER_BOUND ( 'NONE', #197, .T. ) ;
#265 = ORIENTED_EDGE ( 'NONE', *, *, #227, .F. ) ;
#266 = APPROVAL_ROLE ( '' ) ;
#267 = ORIENTED_EDGE ( 'NONE', *, *, #253, .T. ) ;
#268 = DIRECTION ( 'NONE',  ( 1.000000000000000000, 0.000000000000000000, 0.000000000000000000 ) ) ;
#269 = VECTOR ( 'NONE', #34, 1000.000000000000000 ) ;
#270 = FACE_OUTER_BOUND ( 'NONE', #217, .T. ) ;
#271 = DATE_AND_TIME ( #37, #90 ) ;
#272 = DIRECTION ( 'NONE',  ( -1.000000000000000000, 0.000000000000000000, 0.000000000000000000 ) ) ;
#273 = DATE_TIME_ROLE ( 'creation_date' ) ;
#274 = DIRECTION ( 'NONE',  ( 0.000000000000000000, 0.000000000000000000, 1.000000000000000000 ) ) ;
#275 = ORIENTED_EDGE ( 'NONE', *, *, #140, .F. ) ;
#276 = ORIENTED_EDGE ( 'NONE', *, *, #227, .T. ) ;
#277 = EDGE_CURVE ( 'NONE', #284, #299, #226, .T. ) ;
#278 = APPLICATION_PROTOCOL_DEFINITION ( 'international standard', 'config_control_design', 1994, #196 ) ;
#279 = CC_DESIGN_PERSON_AND_ORGANIZATION_ASSIGNMENT ( #257, #207, ( #208 ) ) ;
#280 = LINE ( 'NONE', #118, #122 ) ;
#281 = EDGE_LOOP ( 'NONE', ( #276, #156 ) ) ;
#282 =( NAMED_UNIT ( * ) PLANE_ANGLE_UNIT ( ) SI_UNIT ( $, .RADIAN. ) );
#283 = ADVANCED_FACE ( 'NONE', ( #300 ), #132, .F. ) ;
#284 = VERTEX_POINT ( 'NONE', #192 ) ;
#285 = DIRECTION ( 'NONE',  ( 1.000000000000000000, 0.000000000000000000, 0.000000000000000000 ) ) ;
#286 = ORIENTED_EDGE ( 'NONE', *, *, #260, .T. ) ;
#287 = PLANE ( 'NONE',  #93 ) ;
#288 = DIRECTION ( 'NONE',  ( 0.000000000000000000, 0.000000000000000000, 1.000000000000000000 ) ) ;
#289 = CALENDAR_DATE ( 2022, 7, 7 ) ;
#290 = CARTESIAN_POINT ( 'NONE',  ( -5.100000000000001421, 0.000000000000000000, 5.199999999999982414 ) ) ;
#291 = CIRCLE ( 'NONE', #78, 5.100000000000001421 ) ;
#292 = COORDINATED_UNIVERSAL_TIME_OFFSET ( 1, 0, .AHEAD. ) ;
#293 = CYLINDRICAL_SURFACE ( 'NONE', #46, 8.000000000000000000 ) ;
#294 = ORIENTED_EDGE ( 'NONE', *, *, #277, .T. ) ;
#295 = APPROVAL_DATE_TIME ( #13, #18 ) ;
#296 = LINE ( 'NONE', #100, #269 ) ;
#297 = ORIENTED_EDGE ( 'NONE', *, *, #181, .T. ) ;
#298 = ORGANIZATION ( 'NEURÈENÝ', 'NEURÈENÝ', '' ) ;
#299 = VERTEX_POINT ( 'NONE', #22 ) ;
#300 = FACE_OUTER_BOUND ( 'NONE', #248, .T. ) ;
#301 = CALENDAR_DATE ( 2022, 7, 7 ) ;
#302 = EDGE_LOOP ( 'NONE', ( #145, #26, #198, #215 ) ) ;
#303 = DIRECTION ( 'NONE',  ( 1.000000000000000000, 0.000000000000000000, 0.000000000000000000 ) ) ;
#304 = CIRCLE ( 'NONE', #252, 5.100000000000001421 ) ;
#305 = PERSON_AND_ORGANIZATION ( #129, #298 ) ;
#306 = APPROVAL_PERSON_ORGANIZATION ( #74, #183, #266 ) ;
#307 = ORIENTED_EDGE ( 'NONE', *, *, #277, .F. ) ;
ENDSEC;
END-ISO-10303-21;
