ISO-10303-21;
HEADER;
FILE_DESCRIPTION (( 'STEP AP203' ),
    '1' );
FILE_NAME ('9525.STEP',
    '2022-07-07T10:06:11',
    ( '' ),
    ( '' ),
    'SwSTEP 2.0',
    'SolidWorks 2019',
    '' );
FILE_SCHEMA (( 'CONFIG_CONTROL_DESIGN' ));
ENDSEC;

DATA;
#1 = PERSON_AND_ORGANIZATION_ROLE ( 'design_owner' ) ;
#2 = CYLINDRICAL_SURFACE ( 'NONE', #255, 6.000000000000000888 ) ;
#3 = EDGE_CURVE ( 'NONE', #33, #35, #95, .T. ) ;
#4 = CIRCLE ( 'NONE', #111, 3.500000000000000000 ) ;
#5 = AXIS2_PLACEMENT_3D ( 'NONE', #59, #154, #250 ) ;
#6 = SECURITY_CLASSIFICATION_LEVEL ( 'unclassified' ) ;
#7 = APPROVAL_PERSON_ORGANIZATION ( #268, #119, #75 ) ;
#8 = ORIENTED_EDGE ( 'NONE', *, *, #188, .F. ) ;
#9 = DATE_AND_TIME ( #98, #295 ) ;
#10 = ORIENTED_EDGE ( 'NONE', *, *, #106, .F. ) ;
#11 = DIRECTION ( 'NONE',  ( 0.000000000000000000, 0.000000000000000000, 1.000000000000000000 ) ) ;
#12 = SHAPE_DEFINITION_REPRESENTATION ( #240, #297 ) ;
#13 = EDGE_LOOP ( 'NONE', ( #228, #8, #53, #264 ) ) ;
#14 = CARTESIAN_POINT ( 'NONE',  ( 0.000000000000000000, 0.000000000000000000, 805.0000000000000000 ) ) ;
#15 = DIRECTION ( 'NONE',  ( -1.000000000000000000, 0.000000000000000000, 0.000000000000000000 ) ) ;
#16 = ADVANCED_FACE ( 'NONE', ( #152 ), #249, .F. ) ;
#17 = APPLICATION_CONTEXT ( 'configuration controlled 3d designs of mechanical parts and assemblies' ) ;
#18 = DIRECTION ( 'NONE',  ( -1.000000000000000000, 1.224646799147350742E-16, 0.000000000000000000 ) ) ;
#19 = CARTESIAN_POINT ( 'NONE',  ( 3.500000000000000000, 4.286263797015736595E-16, 805.0000000000000000 ) ) ;
#20 = AXIS2_PLACEMENT_3D ( 'NONE', #43, #88, #15 ) ;
#21 = CARTESIAN_POINT ( 'NONE',  ( 3.500000000000000000, 4.286263797015736595E-16, 805.0000000000000000 ) ) ;
#22 = CC_DESIGN_PERSON_AND_ORGANIZATION_ASSIGNMENT ( #195, #146, ( #201 ) ) ;
#23 = MECHANICAL_CONTEXT ( 'NONE', #17, 'mechanical' ) ;
#24 = DIRECTION ( 'NONE',  ( 1.000000000000000000, 0.000000000000000000, 0.000000000000000000 ) ) ;
#25 = EDGE_CURVE ( 'NONE', #151, #123, #217, .T. ) ;
#26 = FACE_OUTER_BOUND ( 'NONE', #290, .T. ) ;
#27 = LOCAL_TIME ( 12, 6, 11.00000000000000000, #28 ) ;
#28 = COORDINATED_UNIVERSAL_TIME_OFFSET ( 1, 0, .AHEAD. ) ;
#29 = APPROVAL ( #184, 'NEURÈENÝ' ) ;
#30 = DATE_AND_TIME ( #293, #182 ) ;
#31 = EDGE_LOOP ( 'NONE', ( #124, #196 ) ) ;
#32 = CIRCLE ( 'NONE', #306, 3.500000000000000000 ) ;
#33 = VERTEX_POINT ( 'NONE', #89 ) ;
#34 = CALENDAR_DATE ( 2022, 7, 7 ) ;
#35 = VERTEX_POINT ( 'NONE', #298 ) ;
#36 = CC_DESIGN_PERSON_AND_ORGANIZATION_ASSIGNMENT ( #121, #191, ( #301 ) ) ;
#37 = ORIENTED_EDGE ( 'NONE', *, *, #83, .F. ) ;
#38 = EDGE_LOOP ( 'NONE', ( #102, #103 ) ) ;
#39 = LOCAL_TIME ( 12, 6, 11.00000000000000000, #225 ) ;
#40 = LINE ( 'NONE', #64, #190 ) ;
#41 = FACE_OUTER_BOUND ( 'NONE', #272, .T. ) ;
#42 = CARTESIAN_POINT ( 'NONE',  ( -3.500000000000000000, 0.000000000000000000, 805.0000000000000000 ) ) ;
#43 = CARTESIAN_POINT ( 'NONE',  ( 0.000000000000000000, 0.000000000000000000, 805.0000000000000000 ) ) ;
#44 = DIRECTION ( 'NONE',  ( -0.000000000000000000, -0.000000000000000000, -1.000000000000000000 ) ) ;
#45 = LOCAL_TIME ( 12, 6, 11.00000000000000000, #54 ) ;
#46 = EDGE_CURVE ( 'NONE', #224, #80, #193, .T. ) ;
#47 = CARTESIAN_POINT ( 'NONE',  ( -3.500000000000000000, 0.000000000000000000, 5.199999999999982414 ) ) ;
#48 = PERSON_AND_ORGANIZATION ( #68, #280 ) ;
#49 = DIRECTION ( 'NONE',  ( 0.000000000000000000, 0.000000000000000000, 1.000000000000000000 ) ) ;
#50 = CARTESIAN_POINT ( 'NONE',  ( 0.000000000000000000, 0.000000000000000000, 5.000000000000000000 ) ) ;
#51 = EDGE_CURVE ( 'NONE', #33, #292, #253, .T. ) ;
#52 = PERSON_AND_ORGANIZATION_ROLE ( 'classification_officer' ) ;
#53 = ORIENTED_EDGE ( 'NONE', *, *, #242, .T. ) ;
#54 = COORDINATED_UNIVERSAL_TIME_OFFSET ( 1, 0, .AHEAD. ) ;
#55 = ORIENTED_EDGE ( 'NONE', *, *, #83, .T. ) ;
#56 =( GEOMETRIC_REPRESENTATION_CONTEXT ( 3 ) GLOBAL_UNCERTAINTY_ASSIGNED_CONTEXT ( ( #197 ) ) GLOBAL_UNIT_ASSIGNED_CONTEXT ( ( #164, #185, #307 ) ) REPRESENTATION_CONTEXT ( 'NONE', 'WORKASPACE' ) );
#57 = ORIENTED_EDGE ( 'NONE', *, *, #273, .F. ) ;
#58 = ORIENTED_EDGE ( 'NONE', *, *, #25, .T. ) ;
#59 = CARTESIAN_POINT ( 'NONE',  ( 0.000000000000000000, 0.000000000000000000, 0.000000000000000000 ) ) ;
#60 = DIRECTION ( 'NONE',  ( -0.000000000000000000, -0.000000000000000000, -1.000000000000000000 ) ) ;
#61 = AXIS2_PLACEMENT_3D ( 'NONE', #145, #258, #117 ) ;
#62 = DIRECTION ( 'NONE',  ( 0.000000000000000000, 0.000000000000000000, 1.000000000000000000 ) ) ;
#63 = VECTOR ( 'NONE', #108, 1000.000000000000000 ) ;
#64 = CARTESIAN_POINT ( 'NONE',  ( -3.500000000000000000, 0.000000000000000000, 805.0000000000000000 ) ) ;
#65 = CARTESIAN_POINT ( 'NONE',  ( -6.000000000000000888, 0.000000000000000000, 5.000000000000000000 ) ) ;
#66 = APPROVAL_PERSON_ORGANIZATION ( #101, #233, #169 ) ;
#67 = CARTESIAN_POINT ( 'NONE',  ( 0.000000000000000000, 0.000000000000000000, 5.000000000000000000 ) ) ;
#68 = PERSON ( 'NEURÈENÝ', 'NEURÈENÝ', 'NEURÈENÝ', ('NEURÈENÝ'), ('NEURÈENÝ'), ('NEURÈENÝ') ) ;
#69 = DIRECTION ( 'NONE',  ( 0.000000000000000000, -1.000000000000000000, 0.000000000000000000 ) ) ;
#70 = AXIS2_PLACEMENT_3D ( 'NONE', #208, #86, #256 ) ;
#71 = AXIS2_PLACEMENT_3D ( 'NONE', #109, #60, #252 ) ;
#72 = CARTESIAN_POINT ( 'NONE',  ( 0.000000000000000000, 0.000000000000000000, 5.199999999999982414 ) ) ;
#73 = EDGE_LOOP ( 'NONE', ( #57, #192, #10, #219 ) ) ;
#74 = VECTOR ( 'NONE', #275, 1000.000000000000000 ) ;
#75 = APPROVAL_ROLE ( '' ) ;
#76 = ORIENTED_EDGE ( 'NONE', *, *, #51, .T. ) ;
#77 = EDGE_CURVE ( 'NONE', #35, #170, #206, .T. ) ;
#78 = APPLICATION_CONTEXT ( 'configuration controlled 3d designs of mechanical parts and assemblies' ) ;
#79 = CARTESIAN_POINT ( 'NONE',  ( 0.000000000000000000, 0.000000000000000000, 5.000000000000000000 ) ) ;
#80 = VERTEX_POINT ( 'NONE', #134 ) ;
#81 = ORIENTED_EDGE ( 'NONE', *, *, #51, .F. ) ;
#82 = FACE_OUTER_BOUND ( 'NONE', #173, .T. ) ;
#83 = EDGE_CURVE ( 'NONE', #151, #129, #204, .T. ) ;
#84 = CARTESIAN_POINT ( 'NONE',  ( 0.000000000000000000, 0.000000000000000000, 5.199999999999982414 ) ) ;
#85 = AXIS2_PLACEMENT_3D ( 'NONE', #84, #177, #178 ) ;
#86 = DIRECTION ( 'NONE',  ( -0.000000000000000000, -0.000000000000000000, -1.000000000000000000 ) ) ;
#87 = ADVANCED_FACE ( 'NONE', ( #41 ), #232, .T. ) ;
#88 = DIRECTION ( 'NONE',  ( -0.000000000000000000, -0.000000000000000000, -1.000000000000000000 ) ) ;
#89 = CARTESIAN_POINT ( 'NONE',  ( -6.000000000000000888, 0.000000000000000000, 5.000000000000000000 ) ) ;
#90 = AXIS2_PLACEMENT_3D ( 'NONE', #234, #133, #159 ) ;
#91 = CC_DESIGN_PERSON_AND_ORGANIZATION_ASSIGNMENT ( #270, #127, ( #201 ) ) ;
#92 = AXIS2_PLACEMENT_3D ( 'NONE', #161, #305, #18 ) ;
#93 = APPLICATION_PROTOCOL_DEFINITION ( 'international standard', 'config_control_design', 1994, #78 ) ;
#94 = DIRECTION ( 'NONE',  ( -1.000000000000000000, 0.000000000000000000, 0.000000000000000000 ) ) ;
#95 = CIRCLE ( 'NONE', #115, 6.000000000000000888 ) ;
#96 = DIRECTION ( 'NONE',  ( 1.000000000000000000, 0.000000000000000000, 0.000000000000000000 ) ) ;
#97 = CC_DESIGN_APPROVAL ( #29, ( #301 ) ) ;
#98 = CALENDAR_DATE ( 2022, 7, 7 ) ;
#99 = ORIENTED_EDGE ( 'NONE', *, *, #3, .T. ) ;
#100 = ADVANCED_FACE ( 'NONE', ( #180 ), #281, .T. ) ;
#101 = PERSON_AND_ORGANIZATION ( #68, #280 ) ;
#102 = ORIENTED_EDGE ( 'NONE', *, *, #106, .T. ) ;
#103 = ORIENTED_EDGE ( 'NONE', *, *, #143, .T. ) ;
#104 = AXIS2_PLACEMENT_3D ( 'NONE', #50, #186, #141 ) ;
#105 = ORIENTED_EDGE ( 'NONE', *, *, #135, .T. ) ;
#106 = EDGE_CURVE ( 'NONE', #189, #80, #107, .T. ) ;
#107 = CIRCLE ( 'NONE', #71, 3.700000000000000178 ) ;
#108 = DIRECTION ( 'NONE',  ( -0.000000000000000000, -0.000000000000000000, -1.000000000000000000 ) ) ;
#109 = CARTESIAN_POINT ( 'NONE',  ( 0.000000000000000000, 0.000000000000000000, 5.000000000000000000 ) ) ;
#110 = DIRECTION ( 'NONE',  ( 1.000000000000000000, 0.000000000000000000, 0.000000000000000000 ) ) ;
#111 = AXIS2_PLACEMENT_3D ( 'NONE', #72, #236, #24 ) ;
#112 = CARTESIAN_POINT ( 'NONE',  ( 6.000000000000000888, 7.347880794884120722E-16, 5.000000000000000000 ) ) ;
#113 = FACE_OUTER_BOUND ( 'NONE', #147, .T. ) ;
#114 = CARTESIAN_POINT ( 'NONE',  ( 0.000000000000000000, 0.000000000000000000, 805.0000000000000000 ) ) ;
#115 = AXIS2_PLACEMENT_3D ( 'NONE', #79, #11, #247 ) ;
#116 = CARTESIAN_POINT ( 'NONE',  ( -6.000000000000000888, 0.000000000000000000, 0.000000000000000000 ) ) ;
#117 = DIRECTION ( 'NONE',  ( 1.000000000000000000, 0.000000000000000000, 0.000000000000000000 ) ) ;
#118 = AXIS2_PLACEMENT_3D ( 'NONE', #276, #62, #282 ) ;
#119 = APPROVAL ( #243, 'NEURÈENÝ' ) ;
#120 = DIRECTION ( 'NONE',  ( 1.000000000000000000, 0.000000000000000000, -0.000000000000000000 ) ) ;
#121 = PERSON_AND_ORGANIZATION ( #68, #280 ) ;
#122 = COORDINATED_UNIVERSAL_TIME_OFFSET ( 1, 0, .AHEAD. ) ;
#123 = VERTEX_POINT ( 'NONE', #42 ) ;
#124 = ORIENTED_EDGE ( 'NONE', *, *, #205, .F. ) ;
#125 = DESIGN_CONTEXT ( 'detailed design', #78, 'design' ) ;
#126 = CLOSED_SHELL ( 'NONE', ( #214, #87, #153, #266, #284, #16, #100, #223, #138 ) ) ;
#127 = PERSON_AND_ORGANIZATION_ROLE ( 'design_supplier' ) ;
#128 = DIRECTION ( 'NONE',  ( 0.000000000000000000, 0.000000000000000000, 1.000000000000000000 ) ) ;
#129 = VERTEX_POINT ( 'NONE', #278 ) ;
#130 = AXIS2_PLACEMENT_3D ( 'NONE', #241, #69, #259 ) ;
#131 = ORIENTED_EDGE ( 'NONE', *, *, #245, .F. ) ;
#132 = AXIS2_PLACEMENT_3D ( 'NONE', #160, #304, #136 ) ;
#133 = DIRECTION ( 'NONE',  ( 0.000000000000000000, 0.000000000000000000, 1.000000000000000000 ) ) ;
#134 = CARTESIAN_POINT ( 'NONE',  ( -3.700000000000000178, 4.531193156845206201E-16, 4.999999999999991118 ) ) ;
#135 = EDGE_CURVE ( 'NONE', #170, #292, #265, .T. ) ;
#136 = DIRECTION ( 'NONE',  ( 1.000000000000000000, 0.000000000000000000, 0.000000000000000000 ) ) ;
#137 = CYLINDRICAL_SURFACE ( 'NONE', #70, 6.000000000000000888 ) ;
#138 = ADVANCED_FACE ( 'NONE', ( #299 ), #171, .F. ) ;
#139 = PLANE ( 'NONE',  #227 ) ;
#140 = SECURITY_CLASSIFICATION ( '', '', #6 ) ;
#141 = DIRECTION ( 'NONE',  ( 1.000000000000000000, 0.000000000000000000, -0.000000000000000000 ) ) ;
#142 = APPROVAL_ROLE ( '' ) ;
#143 = EDGE_CURVE ( 'NONE', #80, #189, #286, .T. ) ;
#144 = APPLICATION_PROTOCOL_DEFINITION ( 'international standard', 'config_control_design', 1994, #17 ) ;
#145 = CARTESIAN_POINT ( 'NONE',  ( 0.000000000000000000, 0.000000000000000000, 5.000000000000000000 ) ) ;
#146 = PERSON_AND_ORGANIZATION_ROLE ( 'creator' ) ;
#147 = EDGE_LOOP ( 'NONE', ( #222, #58 ) ) ;
#148 = ORIENTED_EDGE ( 'NONE', *, *, #288, .F. ) ;
#149 = CIRCLE ( 'NONE', #85, 3.500000000000000000 ) ;
#150 = DATE_AND_TIME ( #34, #45 ) ;
#151 = VERTEX_POINT ( 'NONE', #19 ) ;
#152 = FACE_OUTER_BOUND ( 'NONE', #31, .T. ) ;
#153 = ADVANCED_FACE ( 'NONE', ( #82 ), #137, .T. ) ;
#154 = DIRECTION ( 'NONE',  ( 0.000000000000000000, 0.000000000000000000, 1.000000000000000000 ) ) ;
#155 = CIRCLE ( 'NONE', #61, 6.000000000000000888 ) ;
#156 = CARTESIAN_POINT ( 'NONE',  ( 3.700000000000000178, 0.000000000000000000, 4.999999999999991118 ) ) ;
#157 = CC_DESIGN_PERSON_AND_ORGANIZATION_ASSIGNMENT ( #213, #1, ( #274 ) ) ;
#158 = DIRECTION ( 'NONE',  ( 1.000000000000000000, 0.000000000000000000, 0.000000000000000000 ) ) ;
#159 = DIRECTION ( 'NONE',  ( 1.000000000000000000, 0.000000000000000000, 0.000000000000000000 ) ) ;
#160 = CARTESIAN_POINT ( 'NONE',  ( 0.000000000000000000, 0.000000000000000000, 0.000000000000000000 ) ) ;
#161 = CARTESIAN_POINT ( 'NONE',  ( -3.700000000000000178, 4.531193156845206201E-16, 5.199999999999982414 ) ) ;
#162 = AXIS2_PLACEMENT_3D ( 'NONE', #181, #209, #279 ) ;
#163 = CARTESIAN_POINT ( 'NONE',  ( 0.000000000000000000, 0.000000000000000000, 805.0000000000000000 ) ) ;
#164 =( LENGTH_UNIT ( ) NAMED_UNIT ( * ) SI_UNIT ( .MILLI., .METRE. ) );
#165 = CIRCLE ( 'NONE', #90, 6.000000000000000888 ) ;
#166 = CC_DESIGN_PERSON_AND_ORGANIZATION_ASSIGNMENT ( #291, #52, ( #140 ) ) ;
#167 = CARTESIAN_POINT ( 'NONE',  ( 0.000000000000000000, 0.000000000000000000, 0.000000000000000000 ) ) ;
#168 = PLANE ( 'NONE',  #104 ) ;
#169 = APPROVAL_ROLE ( '' ) ;
#170 = VERTEX_POINT ( 'NONE', #235 ) ;
#171 = TOROIDAL_SURFACE ( 'NONE', #251, 3.700000000000000178, 0.2000000000000000111 ) ;
#172 = ORIENTED_EDGE ( 'NONE', *, *, #198, .F. ) ;
#173 = EDGE_LOOP ( 'NONE', ( #148, #246, #105, #81 ) ) ;
#174 = CC_DESIGN_DATE_AND_TIME_ASSIGNMENT ( #248, #175, ( #140 ) ) ;
#175 = DATE_TIME_ROLE ( 'classification_date' ) ;
#176 = ORIENTED_EDGE ( 'NONE', *, *, #205, .T. ) ;
#177 = DIRECTION ( 'NONE',  ( 0.000000000000000000, 0.000000000000000000, 1.000000000000000000 ) ) ;
#178 = DIRECTION ( 'NONE',  ( 1.000000000000000000, 0.000000000000000000, 0.000000000000000000 ) ) ;
#179 = DIRECTION ( 'NONE',  ( -0.000000000000000000, -0.000000000000000000, -1.000000000000000000 ) ) ;
#180 = FACE_OUTER_BOUND ( 'NONE', #287, .T. ) ;
#181 = CARTESIAN_POINT ( 'NONE',  ( 0.000000000000000000, 0.000000000000000000, 805.0000000000000000 ) ) ;
#182 = LOCAL_TIME ( 12, 6, 11.00000000000000000, #263 ) ;
#183 = DIRECTION ( 'NONE',  ( 1.000000000000000000, 0.000000000000000000, 0.000000000000000000 ) ) ;
#184 = APPROVAL_STATUS ( 'not_yet_approved' ) ;
#185 =( NAMED_UNIT ( * ) PLANE_ANGLE_UNIT ( ) SI_UNIT ( $, .RADIAN. ) );
#186 = DIRECTION ( 'NONE',  ( 0.000000000000000000, 0.000000000000000000, 1.000000000000000000 ) ) ;
#187 = DATE_AND_TIME ( #216, #27 ) ;
#188 = EDGE_CURVE ( 'NONE', #129, #224, #149, .T. ) ;
#189 = VERTEX_POINT ( 'NONE', #156 ) ;
#190 = VECTOR ( 'NONE', #179, 1000.000000000000000 ) ;
#191 = PERSON_AND_ORGANIZATION_ROLE ( 'creator' ) ;
#192 = ORIENTED_EDGE ( 'NONE', *, *, #46, .T. ) ;
#193 = CIRCLE ( 'NONE', #92, 0.2000000000000000944 ) ;
#194 = MANIFOLD_SOLID_BREP ( 'Zaoblit1', #126 ) ;
#195 = PERSON_AND_ORGANIZATION ( #68, #280 ) ;
#196 = ORIENTED_EDGE ( 'NONE', *, *, #135, .F. ) ;
#197 = UNCERTAINTY_MEASURE_WITH_UNIT (LENGTH_MEASURE( 1.000000000000000082E-05 ), #164, 'distance_accuracy_value', 'NONE');
#198 = EDGE_CURVE ( 'NONE', #123, #224, #40, .T. ) ;
#199 = DATE_TIME_ROLE ( 'creation_date' ) ;
#200 = ORIENTED_EDGE ( 'NONE', *, *, #25, .F. ) ;
#201 = PRODUCT_DEFINITION_FORMATION_WITH_SPECIFIED_SOURCE ( 'LIBOVOLNÝ', '', #274, .NOT_KNOWN. ) ;
#202 = ORIENTED_EDGE ( 'NONE', *, *, #3, .F. ) ;
#203 = VECTOR ( 'NONE', #210, 1000.000000000000000 ) ;
#204 = LINE ( 'NONE', #21, #203 ) ;
#205 = EDGE_CURVE ( 'NONE', #292, #170, #165, .T. ) ;
#206 = LINE ( 'NONE', #112, #63 ) ;
#207 = CC_DESIGN_APPROVAL ( #233, ( #201 ) ) ;
#208 = CARTESIAN_POINT ( 'NONE',  ( 0.000000000000000000, 0.000000000000000000, 5.000000000000000000 ) ) ;
#209 = DIRECTION ( 'NONE',  ( -0.000000000000000000, -0.000000000000000000, -1.000000000000000000 ) ) ;
#210 = DIRECTION ( 'NONE',  ( -0.000000000000000000, -0.000000000000000000, -1.000000000000000000 ) ) ;
#211 = FACE_OUTER_BOUND ( 'NONE', #269, .T. ) ;
#212 = CC_DESIGN_SECURITY_CLASSIFICATION ( #140, ( #201 ) ) ;
#213 = PERSON_AND_ORGANIZATION ( #68, #280 ) ;
#214 = ADVANCED_FACE ( 'NONE', ( #229 ), #215, .F. ) ;
#215 = TOROIDAL_SURFACE ( 'NONE', #118, 3.700000000000000178, 0.2000000000000000111 ) ;
#216 = CALENDAR_DATE ( 2022, 7, 7 ) ;
#217 = CIRCLE ( 'NONE', #303, 3.500000000000000000 ) ;
#218 = APPROVAL_DATE_TIME ( #9, #119 ) ;
#219 = ORIENTED_EDGE ( 'NONE', *, *, #242, .F. ) ;
#220 = CC_DESIGN_APPROVAL ( #119, ( #140 ) ) ;
#221 = CALENDAR_DATE ( 2022, 7, 7 ) ;
#222 = ORIENTED_EDGE ( 'NONE', *, *, #245, .T. ) ;
#223 = ADVANCED_FACE ( 'NONE', ( #113 ), #139, .T. ) ;
#224 = VERTEX_POINT ( 'NONE', #47 ) ;
#225 = COORDINATED_UNIVERSAL_TIME_OFFSET ( 1, 0, .AHEAD. ) ;
#226 = ORIENTED_EDGE ( 'NONE', *, *, #273, .T. ) ;
#227 = AXIS2_PLACEMENT_3D ( 'NONE', #114, #260, #120 ) ;
#228 = ORIENTED_EDGE ( 'NONE', *, *, #46, .F. ) ;
#229 = FACE_OUTER_BOUND ( 'NONE', #73, .T. ) ;
#230 = CARTESIAN_POINT ( 'NONE',  ( 0.000000000000000000, 0.000000000000000000, 5.199999999999982414 ) ) ;
#231 = AXIS2_PLACEMENT_3D ( 'NONE', #167, #49, #183 ) ;
#232 = CYLINDRICAL_SURFACE ( 'NONE', #162, 3.500000000000000000 ) ;
#233 = APPROVAL ( #267, 'NEURÈENÝ' ) ;
#234 = CARTESIAN_POINT ( 'NONE',  ( 0.000000000000000000, 0.000000000000000000, 0.000000000000000000 ) ) ;
#235 = CARTESIAN_POINT ( 'NONE',  ( 6.000000000000000888, 7.347880794884120722E-16, 0.000000000000000000 ) ) ;
#236 = DIRECTION ( 'NONE',  ( 0.000000000000000000, 0.000000000000000000, 1.000000000000000000 ) ) ;
#237 = APPROVAL_PERSON_ORGANIZATION ( #48, #29, #142 ) ;
#238 = CARTESIAN_POINT ( 'NONE',  ( 0.000000000000000000, 0.000000000000000000, 5.000000000000000000 ) ) ;
#239 = DIRECTION ( 'NONE',  ( 0.000000000000000000, 0.000000000000000000, 1.000000000000000000 ) ) ;
#240 = PRODUCT_DEFINITION_SHAPE ( 'NONE', 'NONE',  #301 ) ;
#241 = CARTESIAN_POINT ( 'NONE',  ( 3.700000000000000178, 0.000000000000000000, 5.199999999999982414 ) ) ;
#242 = EDGE_CURVE ( 'NONE', #129, #189, #262, .T. ) ;
#243 = APPROVAL_STATUS ( 'not_yet_approved' ) ;
#244 = ORIENTED_EDGE ( 'NONE', *, *, #288, .T. ) ;
#245 = EDGE_CURVE ( 'NONE', #123, #151, #32, .T. ) ;
#246 = ORIENTED_EDGE ( 'NONE', *, *, #77, .T. ) ;
#247 = DIRECTION ( 'NONE',  ( 1.000000000000000000, 0.000000000000000000, 0.000000000000000000 ) ) ;
#248 = DATE_AND_TIME ( #221, #39 ) ;
#249 = PLANE ( 'NONE',  #5 ) ;
#250 = DIRECTION ( 'NONE',  ( 1.000000000000000000, 0.000000000000000000, -0.000000000000000000 ) ) ;
#251 = AXIS2_PLACEMENT_3D ( 'NONE', #230, #302, #254 ) ;
#252 = DIRECTION ( 'NONE',  ( 1.000000000000000000, 0.000000000000000000, 0.000000000000000000 ) ) ;
#253 = LINE ( 'NONE', #65, #74 ) ;
#254 = DIRECTION ( 'NONE',  ( 1.000000000000000000, 0.000000000000000000, 0.000000000000000000 ) ) ;
#255 = AXIS2_PLACEMENT_3D ( 'NONE', #238, #283, #94 ) ;
#256 = DIRECTION ( 'NONE',  ( -1.000000000000000000, 0.000000000000000000, 0.000000000000000000 ) ) ;
#257 = PRODUCT_RELATED_PRODUCT_CATEGORY ( 'detail', '', ( #274 ) ) ;
#258 = DIRECTION ( 'NONE',  ( 0.000000000000000000, 0.000000000000000000, 1.000000000000000000 ) ) ;
#259 = DIRECTION ( 'NONE',  ( 0.000000000000000000, 0.000000000000000000, -1.000000000000000000 ) ) ;
#260 = DIRECTION ( 'NONE',  ( 0.000000000000000000, 0.000000000000000000, 1.000000000000000000 ) ) ;
#261 = FACE_BOUND ( 'NONE', #38, .T. ) ;
#262 = CIRCLE ( 'NONE', #130, 0.1999999999999996503 ) ;
#263 = COORDINATED_UNIVERSAL_TIME_OFFSET ( 1, 0, .AHEAD. ) ;
#264 = ORIENTED_EDGE ( 'NONE', *, *, #143, .F. ) ;
#265 = CIRCLE ( 'NONE', #132, 6.000000000000000888 ) ;
#266 = ADVANCED_FACE ( 'NONE', ( #26 ), #2, .T. ) ;
#267 = APPROVAL_STATUS ( 'not_yet_approved' ) ;
#268 = PERSON_AND_ORGANIZATION ( #68, #280 ) ;
#269 = EDGE_LOOP ( 'NONE', ( #99, #244 ) ) ;
#270 = PERSON_AND_ORGANIZATION ( #68, #280 ) ;
#271 = ORIENTED_EDGE ( 'NONE', *, *, #198, .T. ) ;
#272 = EDGE_LOOP ( 'NONE', ( #200, #55, #294, #172 ) ) ;
#273 = EDGE_CURVE ( 'NONE', #224, #129, #4, .T. ) ;
#274 = PRODUCT ( '9525', '9525', '', ( #23 ) ) ;
#275 = DIRECTION ( 'NONE',  ( -0.000000000000000000, -0.000000000000000000, -1.000000000000000000 ) ) ;
#276 = CARTESIAN_POINT ( 'NONE',  ( 0.000000000000000000, 0.000000000000000000, 5.199999999999982414 ) ) ;
#277 = CC_DESIGN_DATE_AND_TIME_ASSIGNMENT ( #150, #199, ( #301 ) ) ;
#278 = CARTESIAN_POINT ( 'NONE',  ( 3.500000000000000000, 4.286263797015736595E-16, 5.199999999999982414 ) ) ;
#279 = DIRECTION ( 'NONE',  ( -1.000000000000000000, 0.000000000000000000, 0.000000000000000000 ) ) ;
#280 = ORGANIZATION ( 'NEURÈENÝ', 'NEURÈENÝ', '' ) ;
#281 = CYLINDRICAL_SURFACE ( 'NONE', #20, 3.500000000000000000 ) ;
#282 = DIRECTION ( 'NONE',  ( 1.000000000000000000, 0.000000000000000000, 0.000000000000000000 ) ) ;
#283 = DIRECTION ( 'NONE',  ( -0.000000000000000000, -0.000000000000000000, -1.000000000000000000 ) ) ;
#284 = ADVANCED_FACE ( 'NONE', ( #261, #211 ), #168, .T. ) ;
#285 = APPROVAL_DATE_TIME ( #187, #29 ) ;
#286 = CIRCLE ( 'NONE', #300, 3.700000000000000178 ) ;
#287 = EDGE_LOOP ( 'NONE', ( #37, #131, #271, #226 ) ) ;
#288 = EDGE_CURVE ( 'NONE', #35, #33, #155, .T. ) ;
#289 = APPROVAL_DATE_TIME ( #30, #233 ) ;
#290 = EDGE_LOOP ( 'NONE', ( #296, #202, #76, #176 ) ) ;
#291 = PERSON_AND_ORGANIZATION ( #68, #280 ) ;
#292 = VERTEX_POINT ( 'NONE', #116 ) ;
#293 = CALENDAR_DATE ( 2022, 7, 7 ) ;
#294 = ORIENTED_EDGE ( 'NONE', *, *, #188, .T. ) ;
#295 = LOCAL_TIME ( 12, 6, 11.00000000000000000, #122 ) ;
#296 = ORIENTED_EDGE ( 'NONE', *, *, #77, .F. ) ;
#297 = ADVANCED_BREP_SHAPE_REPRESENTATION ( '9525', ( #194, #231 ), #56 ) ;
#298 = CARTESIAN_POINT ( 'NONE',  ( 6.000000000000000888, 7.347880794884120722E-16, 5.000000000000000000 ) ) ;
#299 = FACE_OUTER_BOUND ( 'NONE', #13, .T. ) ;
#300 = AXIS2_PLACEMENT_3D ( 'NONE', #67, #44, #110 ) ;
#301 = PRODUCT_DEFINITION ( 'NEZNÁMÝ', '', #201, #125 ) ;
#302 = DIRECTION ( 'NONE',  ( 0.000000000000000000, 0.000000000000000000, 1.000000000000000000 ) ) ;
#303 = AXIS2_PLACEMENT_3D ( 'NONE', #14, #128, #158 ) ;
#304 = DIRECTION ( 'NONE',  ( 0.000000000000000000, 0.000000000000000000, 1.000000000000000000 ) ) ;
#305 = DIRECTION ( 'NONE',  ( 1.224646799147353207E-16, 1.000000000000000000, -0.000000000000000000 ) ) ;
#306 = AXIS2_PLACEMENT_3D ( 'NONE', #163, #239, #96 ) ;
#307 =( NAMED_UNIT ( * ) SI_UNIT ( $, .STERADIAN. ) SOLID_ANGLE_UNIT ( ) );
ENDSEC;
END-ISO-10303-21;
