ISO-10303-21;
HEADER;
FILE_DESCRIPTION (( 'STEP AP203' ),
    '1' );
FILE_NAME ('ca59.STEP',
    '2022-07-07T09:52:12',
    ( '' ),
    ( '' ),
    'SwSTEP 2.0',
    'SolidWorks 2019',
    '' );
FILE_SCHEMA (( 'CONFIG_CONTROL_DESIGN' ));
ENDSEC;

DATA;
#1 = ADVANCED_FACE ( 'NONE', ( #142 ), #170, .T. ) ;
#2 = ORIENTED_EDGE ( 'NONE', *, *, #235, .F. ) ;
#3 = CARTESIAN_POINT ( 'NONE',  ( 0.000000000000000000, 0.000000000000000000, 505.0000000000000000 ) ) ;
#4 = CLOSED_SHELL ( 'NONE', ( #298, #94, #131, #47, #75, #256, #202, #1, #44 ) ) ;
#5 = FACE_OUTER_BOUND ( 'NONE', #144, .T. ) ;
#6 = CC_DESIGN_APPROVAL ( #8, ( #28 ) ) ;
#7 = AXIS2_PLACEMENT_3D ( 'NONE', #296, #175, #204 ) ;
#8 = APPROVAL ( #115, 'NEURÈENÝ' ) ;
#9 = EDGE_LOOP ( 'NONE', ( #49, #178, #99, #41 ) ) ;
#10 = CARTESIAN_POINT ( 'NONE',  ( 0.000000000000000000, 0.000000000000000000, 5.000000000000000000 ) ) ;
#11 = EDGE_CURVE ( 'NONE', #255, #288, #22, .T. ) ;
#12 = AXIS2_PLACEMENT_3D ( 'NONE', #77, #171, #14 ) ;
#13 = CARTESIAN_POINT ( 'NONE',  ( -8.000000000000000000, 0.000000000000000000, 0.000000000000000000 ) ) ;
#14 = DIRECTION ( 'NONE',  ( 1.000000000000000000, 0.000000000000000000, 0.000000000000000000 ) ) ;
#15 = DATE_TIME_ROLE ( 'classification_date' ) ;
#16 = DIRECTION ( 'NONE',  ( -1.000000000000000000, 0.000000000000000000, 0.000000000000000000 ) ) ;
#17 = PRODUCT_RELATED_PRODUCT_CATEGORY ( 'detail', '', ( #282 ) ) ;
#18 = CC_DESIGN_APPROVAL ( #243, ( #82 ) ) ;
#19 = COORDINATED_UNIVERSAL_TIME_OFFSET ( 1, 0, .AHEAD. ) ;
#20 = APPROVAL_STATUS ( 'not_yet_approved' ) ;
#21 = ORIENTED_EDGE ( 'NONE', *, *, #150, .F. ) ;
#22 = CIRCLE ( 'NONE', #157, 5.300000000000000711 ) ;
#23 = CARTESIAN_POINT ( 'NONE',  ( 5.300000000000000711, 0.000000000000000000, 4.999999999999991118 ) ) ;
#24 = FACE_OUTER_BOUND ( 'NONE', #286, .T. ) ;
#25 = MECHANICAL_CONTEXT ( 'NONE', #154, 'mechanical' ) ;
#26 = DIRECTION ( 'NONE',  ( 1.000000000000000000, 0.000000000000000000, 0.000000000000000000 ) ) ;
#27 = EDGE_CURVE ( 'NONE', #200, #136, #241, .T. ) ;
#28 = PRODUCT_DEFINITION ( 'NEZNÁMÝ', '', #66, #218 ) ;
#29 = ORIENTED_EDGE ( 'NONE', *, *, #11, .F. ) ;
#30 = DIRECTION ( 'NONE',  ( 0.000000000000000000, 0.000000000000000000, 1.000000000000000000 ) ) ;
#31 = VERTEX_POINT ( 'NONE', #145 ) ;
#32 = CARTESIAN_POINT ( 'NONE',  ( 5.100000000000001421, 6.245698675651502811E-16, 5.199999999999982414 ) ) ;
#33 = AXIS2_PLACEMENT_3D ( 'NONE', #103, #272, #35 ) ;
#34 = CARTESIAN_POINT ( 'NONE',  ( 0.000000000000000000, 0.000000000000000000, 0.000000000000000000 ) ) ;
#35 = DIRECTION ( 'NONE',  ( 1.000000000000000000, 0.000000000000000000, 0.000000000000000000 ) ) ;
#36 = PERSON_AND_ORGANIZATION ( #211, #96 ) ;
#37 = LINE ( 'NONE', #302, #163 ) ;
#38 = AXIS2_PLACEMENT_3D ( 'NONE', #3, #236, #119 ) ;
#39 = VERTEX_POINT ( 'NONE', #32 ) ;
#40 = CARTESIAN_POINT ( 'NONE',  ( 0.000000000000000000, 0.000000000000000000, 5.000000000000000000 ) ) ;
#41 = ORIENTED_EDGE ( 'NONE', *, *, #251, .F. ) ;
#42 = PERSON_AND_ORGANIZATION_ROLE ( 'creator' ) ;
#43 =( NAMED_UNIT ( * ) PLANE_ANGLE_UNIT ( ) SI_UNIT ( $, .RADIAN. ) );
#44 = ADVANCED_FACE ( 'NONE', ( #95 ), #73, .F. ) ;
#45 = EDGE_LOOP ( 'NONE', ( #227, #247, #100, #239 ) ) ;
#46 = VECTOR ( 'NONE', #304, 1000.000000000000000 ) ;
#47 = ADVANCED_FACE ( 'NONE', ( #5 ), #258, .T. ) ;
#48 = CIRCLE ( 'NONE', #248, 5.100000000000001421 ) ;
#49 = ORIENTED_EDGE ( 'NONE', *, *, #261, .F. ) ;
#50 = CC_DESIGN_DATE_AND_TIME_ASSIGNMENT ( #63, #15, ( #82 ) ) ;
#51 = DIRECTION ( 'NONE',  ( -1.000000000000000000, 0.000000000000000000, 0.000000000000000000 ) ) ;
#52 = VERTEX_POINT ( 'NONE', #71 ) ;
#53 = EDGE_LOOP ( 'NONE', ( #85, #192, #117, #166 ) ) ;
#54 = AXIS2_PLACEMENT_3D ( 'NONE', #140, #254, #64 ) ;
#55 = EDGE_CURVE ( 'NONE', #270, #39, #48, .T. ) ;
#56 = DIRECTION ( 'NONE',  ( 0.000000000000000000, 0.000000000000000000, 1.000000000000000000 ) ) ;
#57 = CIRCLE ( 'NONE', #76, 5.100000000000001421 ) ;
#58 = CYLINDRICAL_SURFACE ( 'NONE', #289, 5.100000000000001421 ) ;
#59 = PERSON_AND_ORGANIZATION_ROLE ( 'creator' ) ;
#60 = DIRECTION ( 'NONE',  ( -0.000000000000000000, -0.000000000000000000, -1.000000000000000000 ) ) ;
#61 = DIRECTION ( 'NONE',  ( 1.000000000000000000, 0.000000000000000000, 0.000000000000000000 ) ) ;
#62 = APPROVAL_DATE_TIME ( #222, #243 ) ;
#63 = DATE_AND_TIME ( #295, #297 ) ;
#64 = DIRECTION ( 'NONE',  ( -1.000000000000000000, 1.224646799147353454E-16, 0.000000000000000000 ) ) ;
#65 = DIRECTION ( 'NONE',  ( 1.000000000000000000, 0.000000000000000000, -0.000000000000000000 ) ) ;
#66 = PRODUCT_DEFINITION_FORMATION_WITH_SPECIFIED_SOURCE ( 'LIBOVOLNÝ', '', #282, .NOT_KNOWN. ) ;
#67 = CARTESIAN_POINT ( 'NONE',  ( 0.000000000000000000, 0.000000000000000000, 5.199999999999982414 ) ) ;
#68 = ORIENTED_EDGE ( 'NONE', *, *, #193, .T. ) ;
#69 = DIRECTION ( 'NONE',  ( -0.000000000000000000, -0.000000000000000000, -1.000000000000000000 ) ) ;
#70 = CIRCLE ( 'NONE', #7, 5.100000000000001421 ) ;
#71 = CARTESIAN_POINT ( 'NONE',  ( 5.100000000000001421, 6.245698675651502811E-16, 505.0000000000000000 ) ) ;
#72 = ORIENTED_EDGE ( 'NONE', *, *, #109, .T. ) ;
#73 = TOROIDAL_SURFACE ( 'NONE', #114, 5.300000000000000711, 0.2000000000000000111 ) ;
#74 = EDGE_CURVE ( 'NONE', #108, #31, #273, .T. ) ;
#75 = ADVANCED_FACE ( 'NONE', ( #223, #24 ), #221, .T. ) ;
#76 = AXIS2_PLACEMENT_3D ( 'NONE', #151, #195, #61 ) ;
#77 = CARTESIAN_POINT ( 'NONE',  ( 0.000000000000000000, 0.000000000000000000, 5.199999999999982414 ) ) ;
#78 = MANIFOLD_SOLID_BREP ( 'Zaoblit1', #4 ) ;
#79 = DIRECTION ( 'NONE',  ( 1.000000000000000000, 0.000000000000000000, 0.000000000000000000 ) ) ;
#80 = PERSON_AND_ORGANIZATION_ROLE ( 'design_supplier' ) ;
#81 = CARTESIAN_POINT ( 'NONE',  ( 0.000000000000000000, 0.000000000000000000, 505.0000000000000000 ) ) ;
#82 = SECURITY_CLASSIFICATION ( '', '', #245 ) ;
#83 = CIRCLE ( 'NONE', #54, 0.1999999999999996503 ) ;
#84 = DIRECTION ( 'NONE',  ( -0.000000000000000000, -0.000000000000000000, -1.000000000000000000 ) ) ;
#85 = ORIENTED_EDGE ( 'NONE', *, *, #215, .F. ) ;
#86 = EDGE_CURVE ( 'NONE', #288, #255, #148, .T. ) ;
#87 = APPROVAL_ROLE ( '' ) ;
#88 = CARTESIAN_POINT ( 'NONE',  ( 0.000000000000000000, 0.000000000000000000, 0.000000000000000000 ) ) ;
#89 = FACE_OUTER_BOUND ( 'NONE', #53, .T. ) ;
#90 = CC_DESIGN_PERSON_AND_ORGANIZATION_ASSIGNMENT ( #91, #234, ( #282 ) ) ;
#91 = PERSON_AND_ORGANIZATION ( #211, #96 ) ;
#92 = APPLICATION_PROTOCOL_DEFINITION ( 'international standard', 'config_control_design', 1994, #169 ) ;
#93 = ORIENTED_EDGE ( 'NONE', *, *, #74, .F. ) ;
#94 = ADVANCED_FACE ( 'NONE', ( #172 ), #196, .T. ) ;
#95 = FACE_OUTER_BOUND ( 'NONE', #225, .T. ) ;
#96 = ORGANIZATION ( 'NEURÈENÝ', 'NEURÈENÝ', '' ) ;
#97 = CARTESIAN_POINT ( 'NONE',  ( 0.000000000000000000, 0.000000000000000000, 5.199999999999982414 ) ) ;
#98 =( GEOMETRIC_REPRESENTATION_CONTEXT ( 3 ) GLOBAL_UNCERTAINTY_ASSIGNED_CONTEXT ( ( #122 ) ) GLOBAL_UNIT_ASSIGNED_CONTEXT ( ( #231, #43, #161 ) ) REPRESENTATION_CONTEXT ( 'NONE', 'WORKASPACE' ) );
#99 = ORIENTED_EDGE ( 'NONE', *, *, #27, .T. ) ;
#100 = ORIENTED_EDGE ( 'NONE', *, *, #235, .T. ) ;
#101 = DIRECTION ( 'NONE',  ( 1.000000000000000000, 0.000000000000000000, -0.000000000000000000 ) ) ;
#102 = CC_DESIGN_PERSON_AND_ORGANIZATION_ASSIGNMENT ( #271, #59, ( #66 ) ) ;
#103 = CARTESIAN_POINT ( 'NONE',  ( 0.000000000000000000, 0.000000000000000000, 5.000000000000000000 ) ) ;
#104 = ORIENTED_EDGE ( 'NONE', *, *, #261, .T. ) ;
#105 = DIRECTION ( 'NONE',  ( 1.000000000000000000, 0.000000000000000000, 0.000000000000000000 ) ) ;
#106 = AXIS2_PLACEMENT_3D ( 'NONE', #67, #138, #305 ) ;
#107 = PERSON_AND_ORGANIZATION ( #211, #96 ) ;
#108 = VERTEX_POINT ( 'NONE', #182 ) ;
#109 = EDGE_CURVE ( 'NONE', #238, #52, #57, .T. ) ;
#110 = APPROVAL_ROLE ( '' ) ;
#111 = APPROVAL_DATE_TIME ( #229, #8 ) ;
#112 = DIRECTION ( 'NONE',  ( 0.000000000000000000, 0.000000000000000000, 1.000000000000000000 ) ) ;
#113 = DIRECTION ( 'NONE',  ( 0.000000000000000000, 0.000000000000000000, 1.000000000000000000 ) ) ;
#114 = AXIS2_PLACEMENT_3D ( 'NONE', #168, #30, #167 ) ;
#115 = APPROVAL_STATUS ( 'not_yet_approved' ) ;
#116 = CIRCLE ( 'NONE', #12, 5.100000000000001421 ) ;
#117 = ORIENTED_EDGE ( 'NONE', *, *, #253, .T. ) ;
#118 = EDGE_LOOP ( 'NONE', ( #125, #260, #133, #21 ) ) ;
#119 = DIRECTION ( 'NONE',  ( 1.000000000000000000, 0.000000000000000000, -0.000000000000000000 ) ) ;
#120 = DIRECTION ( 'NONE',  ( 1.000000000000000000, 0.000000000000000000, 0.000000000000000000 ) ) ;
#121 = PRODUCT_DEFINITION_SHAPE ( 'NONE', 'NONE',  #28 ) ;
#122 = UNCERTAINTY_MEASURE_WITH_UNIT (LENGTH_MEASURE( 1.000000000000000082E-05 ), #231, 'distance_accuracy_value', 'NONE');
#123 = CARTESIAN_POINT ( 'NONE',  ( 0.000000000000000000, 0.000000000000000000, 505.0000000000000000 ) ) ;
#124 = DIRECTION ( 'NONE',  ( -0.000000000000000000, -0.000000000000000000, -1.000000000000000000 ) ) ;
#125 = ORIENTED_EDGE ( 'NONE', *, *, #55, .F. ) ;
#126 = PERSON_AND_ORGANIZATION_ROLE ( 'classification_officer' ) ;
#127 = DIRECTION ( 'NONE',  ( -0.000000000000000000, -0.000000000000000000, -1.000000000000000000 ) ) ;
#128 = ORIENTED_EDGE ( 'NONE', *, *, #141, .T. ) ;
#129 = DATE_TIME_ROLE ( 'creation_date' ) ;
#130 = LINE ( 'NONE', #290, #194 ) ;
#131 = ADVANCED_FACE ( 'NONE', ( #198 ), #219, .T. ) ;
#132 = SHAPE_DEFINITION_REPRESENTATION ( #121, #300 ) ;
#133 = ORIENTED_EDGE ( 'NONE', *, *, #86, .F. ) ;
#134 = COORDINATED_UNIVERSAL_TIME_OFFSET ( 1, 0, .AHEAD. ) ;
#135 = CALENDAR_DATE ( 2022, 7, 7 ) ;
#136 = VERTEX_POINT ( 'NONE', #13 ) ;
#137 = CC_DESIGN_PERSON_AND_ORGANIZATION_ASSIGNMENT ( #203, #42, ( #28 ) ) ;
#138 = DIRECTION ( 'NONE',  ( 0.000000000000000000, 0.000000000000000000, 1.000000000000000000 ) ) ;
#139 = APPROVAL_PERSON_ORGANIZATION ( #252, #275, #228 ) ;
#140 = CARTESIAN_POINT ( 'NONE',  ( -5.300000000000000711, 6.490628035480972910E-16, 5.199999999999982414 ) ) ;
#141 = EDGE_CURVE ( 'NONE', #52, #238, #70, .T. ) ;
#142 = FACE_OUTER_BOUND ( 'NONE', #214, .T. ) ;
#143 = DIRECTION ( 'NONE',  ( 0.000000000000000000, 0.000000000000000000, 1.000000000000000000 ) ) ;
#144 = EDGE_LOOP ( 'NONE', ( #230, #93, #160, #68 ) ) ;
#145 = CARTESIAN_POINT ( 'NONE',  ( 8.000000000000000000, 9.797174393178825657E-16, 5.000000000000000000 ) ) ;
#146 = AXIS2_PLACEMENT_3D ( 'NONE', #34, #278, #79 ) ;
#147 = AXIS2_PLACEMENT_3D ( 'NONE', #233, #208, #26 ) ;
#148 = CIRCLE ( 'NONE', #33, 5.300000000000000711 ) ;
#149 = CARTESIAN_POINT ( 'NONE',  ( 0.000000000000000000, 0.000000000000000000, 5.000000000000000000 ) ) ;
#150 = EDGE_CURVE ( 'NONE', #39, #288, #262, .T. ) ;
#151 = CARTESIAN_POINT ( 'NONE',  ( 0.000000000000000000, 0.000000000000000000, 505.0000000000000000 ) ) ;
#152 = TOROIDAL_SURFACE ( 'NONE', #106, 5.300000000000000711, 0.2000000000000000111 ) ;
#153 = COORDINATED_UNIVERSAL_TIME_OFFSET ( 1, 0, .AHEAD. ) ;
#154 = APPLICATION_CONTEXT ( 'configuration controlled 3d designs of mechanical parts and assemblies' ) ;
#155 = DIRECTION ( 'NONE',  ( -1.000000000000000000, 0.000000000000000000, 0.000000000000000000 ) ) ;
#156 = DIRECTION ( 'NONE',  ( 0.000000000000000000, 0.000000000000000000, -1.000000000000000000 ) ) ;
#157 = AXIS2_PLACEMENT_3D ( 'NONE', #212, #188, #120 ) ;
#158 = ORIENTED_EDGE ( 'NONE', *, *, #11, .T. ) ;
#159 = CALENDAR_DATE ( 2022, 7, 7 ) ;
#160 = ORIENTED_EDGE ( 'NONE', *, *, #251, .T. ) ;
#161 =( NAMED_UNIT ( * ) SI_UNIT ( $, .STERADIAN. ) SOLID_ANGLE_UNIT ( ) );
#162 = DIRECTION ( 'NONE',  ( -0.000000000000000000, -0.000000000000000000, -1.000000000000000000 ) ) ;
#163 = VECTOR ( 'NONE', #162, 1000.000000000000000 ) ;
#164 = FACE_OUTER_BOUND ( 'NONE', #287, .T. ) ;
#165 = AXIS2_PLACEMENT_3D ( 'NONE', #10, #69, #51 ) ;
#166 = ORIENTED_EDGE ( 'NONE', *, *, #55, .T. ) ;
#167 = DIRECTION ( 'NONE',  ( 1.000000000000000000, 0.000000000000000000, 0.000000000000000000 ) ) ;
#168 = CARTESIAN_POINT ( 'NONE',  ( 0.000000000000000000, 0.000000000000000000, 5.199999999999982414 ) ) ;
#169 = APPLICATION_CONTEXT ( 'configuration controlled 3d designs of mechanical parts and assemblies' ) ;
#170 = PLANE ( 'NONE',  #38 ) ;
#171 = DIRECTION ( 'NONE',  ( 0.000000000000000000, 0.000000000000000000, 1.000000000000000000 ) ) ;
#172 = FACE_OUTER_BOUND ( 'NONE', #45, .T. ) ;
#173 = CALENDAR_DATE ( 2022, 7, 7 ) ;
#174 = LOCAL_TIME ( 11, 52, 12.00000000000000000, #134 ) ;
#175 = DIRECTION ( 'NONE',  ( 0.000000000000000000, 0.000000000000000000, 1.000000000000000000 ) ) ;
#176 = DIRECTION ( 'NONE',  ( 0.000000000000000000, -1.000000000000000000, 0.000000000000000000 ) ) ;
#177 = ORIENTED_EDGE ( 'NONE', *, *, #274, .F. ) ;
#178 = ORIENTED_EDGE ( 'NONE', *, *, #186, .T. ) ;
#179 = COORDINATED_UNIVERSAL_TIME_OFFSET ( 1, 0, .AHEAD. ) ;
#180 = VECTOR ( 'NONE', #246, 1000.000000000000000 ) ;
#181 = FACE_OUTER_BOUND ( 'NONE', #118, .T. ) ;
#182 = CARTESIAN_POINT ( 'NONE',  ( -8.000000000000000000, 0.000000000000000000, 5.000000000000000000 ) ) ;
#183 = APPLICATION_PROTOCOL_DEFINITION ( 'international standard', 'config_control_design', 1994, #154 ) ;
#184 = PLANE ( 'NONE',  #224 ) ;
#185 = AXIS2_PLACEMENT_3D ( 'NONE', #40, #127, #155 ) ;
#186 = EDGE_CURVE ( 'NONE', #31, #200, #249, .T. ) ;
#187 = CARTESIAN_POINT ( 'NONE',  ( -5.100000000000001421, 0.000000000000000000, 5.199999999999982414 ) ) ;
#188 = DIRECTION ( 'NONE',  ( -0.000000000000000000, -0.000000000000000000, -1.000000000000000000 ) ) ;
#189 = ORIENTED_EDGE ( 'NONE', *, *, #86, .T. ) ;
#190 = ORIENTED_EDGE ( 'NONE', *, *, #74, .T. ) ;
#191 = AXIS2_PLACEMENT_3D ( 'NONE', #149, #56, #105 ) ;
#192 = ORIENTED_EDGE ( 'NONE', *, *, #109, .F. ) ;
#193 = EDGE_CURVE ( 'NONE', #136, #200, #250, .T. ) ;
#194 = VECTOR ( 'NONE', #124, 1000.000000000000000 ) ;
#195 = DIRECTION ( 'NONE',  ( 0.000000000000000000, 0.000000000000000000, 1.000000000000000000 ) ) ;
#196 = CYLINDRICAL_SURFACE ( 'NONE', #293, 5.100000000000001421 ) ;
#197 = EDGE_LOOP ( 'NONE', ( #189, #158 ) ) ;
#198 = FACE_OUTER_BOUND ( 'NONE', #9, .T. ) ;
#199 = CC_DESIGN_SECURITY_CLASSIFICATION ( #82, ( #66 ) ) ;
#200 = VERTEX_POINT ( 'NONE', #291 ) ;
#201 = COORDINATED_UNIVERSAL_TIME_OFFSET ( 1, 0, .AHEAD. ) ;
#202 = ADVANCED_FACE ( 'NONE', ( #89 ), #58, .T. ) ;
#203 = PERSON_AND_ORGANIZATION ( #211, #96 ) ;
#204 = DIRECTION ( 'NONE',  ( 1.000000000000000000, 0.000000000000000000, 0.000000000000000000 ) ) ;
#205 = DIRECTION ( 'NONE',  ( 1.000000000000000000, 0.000000000000000000, 0.000000000000000000 ) ) ;
#206 = AXIS2_PLACEMENT_3D ( 'NONE', #283, #209, #237 ) ;
#207 = CC_DESIGN_PERSON_AND_ORGANIZATION_ASSIGNMENT ( #36, #126, ( #82 ) ) ;
#208 = DIRECTION ( 'NONE',  ( 0.000000000000000000, 0.000000000000000000, 1.000000000000000000 ) ) ;
#209 = DIRECTION ( 'NONE',  ( 0.000000000000000000, 0.000000000000000000, 1.000000000000000000 ) ) ;
#210 = ORIENTED_EDGE ( 'NONE', *, *, #150, .T. ) ;
#211 = PERSON ( 'NEURÈENÝ', 'NEURÈENÝ', 'NEURÈENÝ', ('NEURÈENÝ'), ('NEURÈENÝ'), ('NEURÈENÝ') ) ;
#212 = CARTESIAN_POINT ( 'NONE',  ( 0.000000000000000000, 0.000000000000000000, 5.000000000000000000 ) ) ;
#213 = LOCAL_TIME ( 11, 52, 12.00000000000000000, #201 ) ;
#214 = EDGE_LOOP ( 'NONE', ( #72, #128 ) ) ;
#215 = EDGE_CURVE ( 'NONE', #52, #39, #130, .T. ) ;
#216 = CARTESIAN_POINT ( 'NONE',  ( -8.000000000000000000, 0.000000000000000000, 5.000000000000000000 ) ) ;
#217 = AXIS2_PLACEMENT_3D ( 'NONE', #279, #277, #205 ) ;
#218 = DESIGN_CONTEXT ( 'detailed design', #169, 'design' ) ;
#219 = CYLINDRICAL_SURFACE ( 'NONE', #185, 8.000000000000000000 ) ;
#220 = CALENDAR_DATE ( 2022, 7, 7 ) ;
#221 = PLANE ( 'NONE',  #284 ) ;
#222 = DATE_AND_TIME ( #173, #213 ) ;
#223 = FACE_BOUND ( 'NONE', #197, .T. ) ;
#224 = AXIS2_PLACEMENT_3D ( 'NONE', #88, #113, #65 ) ;
#225 = EDGE_LOOP ( 'NONE', ( #177, #2, #210, #29 ) ) ;
#226 = DATE_AND_TIME ( #159, #232 ) ;
#227 = ORIENTED_EDGE ( 'NONE', *, *, #141, .F. ) ;
#228 = APPROVAL_ROLE ( '' ) ;
#229 = DATE_AND_TIME ( #135, #257 ) ;
#230 = ORIENTED_EDGE ( 'NONE', *, *, #186, .F. ) ;
#231 =( LENGTH_UNIT ( ) NAMED_UNIT ( * ) SI_UNIT ( .MILLI., .METRE. ) );
#232 = LOCAL_TIME ( 11, 52, 12.00000000000000000, #19 ) ;
#233 = CARTESIAN_POINT ( 'NONE',  ( 0.000000000000000000, 0.000000000000000000, 0.000000000000000000 ) ) ;
#234 = PERSON_AND_ORGANIZATION_ROLE ( 'design_owner' ) ;
#235 = EDGE_CURVE ( 'NONE', #39, #270, #116, .T. ) ;
#236 = DIRECTION ( 'NONE',  ( 0.000000000000000000, 0.000000000000000000, 1.000000000000000000 ) ) ;
#237 = DIRECTION ( 'NONE',  ( 1.000000000000000000, 0.000000000000000000, 0.000000000000000000 ) ) ;
#238 = VERTEX_POINT ( 'NONE', #263 ) ;
#239 = ORIENTED_EDGE ( 'NONE', *, *, #253, .F. ) ;
#240 = CC_DESIGN_APPROVAL ( #275, ( #66 ) ) ;
#241 = CIRCLE ( 'NONE', #206, 8.000000000000000000 ) ;
#242 = LINE ( 'NONE', #216, #180 ) ;
#243 = APPROVAL ( #20, 'NEURÈENÝ' ) ;
#244 = DIRECTION ( 'NONE',  ( -1.000000000000000000, 0.000000000000000000, 0.000000000000000000 ) ) ;
#245 = SECURITY_CLASSIFICATION_LEVEL ( 'unclassified' ) ;
#246 = DIRECTION ( 'NONE',  ( -0.000000000000000000, -0.000000000000000000, -1.000000000000000000 ) ) ;
#247 = ORIENTED_EDGE ( 'NONE', *, *, #215, .T. ) ;
#248 = AXIS2_PLACEMENT_3D ( 'NONE', #97, #143, #259 ) ;
#249 = LINE ( 'NONE', #294, #46 ) ;
#250 = CIRCLE ( 'NONE', #146, 8.000000000000000000 ) ;
#251 = EDGE_CURVE ( 'NONE', #108, #136, #242, .T. ) ;
#252 = PERSON_AND_ORGANIZATION ( #211, #96 ) ;
#253 = EDGE_CURVE ( 'NONE', #238, #270, #37, .T. ) ;
#254 = DIRECTION ( 'NONE',  ( 1.224646799147353207E-16, 1.000000000000000000, -0.000000000000000000 ) ) ;
#255 = VERTEX_POINT ( 'NONE', #306 ) ;
#256 = ADVANCED_FACE ( 'NONE', ( #164 ), #184, .F. ) ;
#257 = LOCAL_TIME ( 11, 52, 12.00000000000000000, #179 ) ;
#258 = CYLINDRICAL_SURFACE ( 'NONE', #165, 8.000000000000000000 ) ;
#259 = DIRECTION ( 'NONE',  ( 1.000000000000000000, 0.000000000000000000, 0.000000000000000000 ) ) ;
#260 = ORIENTED_EDGE ( 'NONE', *, *, #274, .T. ) ;
#261 = EDGE_CURVE ( 'NONE', #31, #108, #280, .T. ) ;
#262 = CIRCLE ( 'NONE', #307, 0.1999999999999996503 ) ;
#263 = CARTESIAN_POINT ( 'NONE',  ( -5.100000000000001421, 0.000000000000000000, 505.0000000000000000 ) ) ;
#264 = CC_DESIGN_DATE_AND_TIME_ASSIGNMENT ( #299, #129, ( #28 ) ) ;
#265 = CARTESIAN_POINT ( 'NONE',  ( 0.000000000000000000, 0.000000000000000000, 5.000000000000000000 ) ) ;
#266 = APPROVAL_PERSON_ORGANIZATION ( #281, #8, #87 ) ;
#267 = APPROVAL_DATE_TIME ( #226, #275 ) ;
#268 = CARTESIAN_POINT ( 'NONE',  ( 5.300000000000000711, 0.000000000000000000, 5.199999999999982414 ) ) ;
#269 = APPROVAL_PERSON_ORGANIZATION ( #107, #243, #110 ) ;
#270 = VERTEX_POINT ( 'NONE', #187 ) ;
#271 = PERSON_AND_ORGANIZATION ( #211, #96 ) ;
#272 = DIRECTION ( 'NONE',  ( -0.000000000000000000, -0.000000000000000000, -1.000000000000000000 ) ) ;
#273 = CIRCLE ( 'NONE', #191, 8.000000000000000000 ) ;
#274 = EDGE_CURVE ( 'NONE', #270, #255, #83, .T. ) ;
#275 = APPROVAL ( #276, 'NEURÈENÝ' ) ;
#276 = APPROVAL_STATUS ( 'not_yet_approved' ) ;
#277 = DIRECTION ( 'NONE',  ( 0.000000000000000000, 0.000000000000000000, 1.000000000000000000 ) ) ;
#278 = DIRECTION ( 'NONE',  ( 0.000000000000000000, 0.000000000000000000, 1.000000000000000000 ) ) ;
#279 = CARTESIAN_POINT ( 'NONE',  ( 0.000000000000000000, 0.000000000000000000, 5.000000000000000000 ) ) ;
#280 = CIRCLE ( 'NONE', #217, 8.000000000000000000 ) ;
#281 = PERSON_AND_ORGANIZATION ( #211, #96 ) ;
#282 = PRODUCT ( 'ca59', 'ca59', '', ( #25 ) ) ;
#283 = CARTESIAN_POINT ( 'NONE',  ( 0.000000000000000000, 0.000000000000000000, 0.000000000000000000 ) ) ;
#284 = AXIS2_PLACEMENT_3D ( 'NONE', #265, #112, #101 ) ;
#285 = ORIENTED_EDGE ( 'NONE', *, *, #27, .F. ) ;
#286 = EDGE_LOOP ( 'NONE', ( #190, #104 ) ) ;
#287 = EDGE_LOOP ( 'NONE', ( #301, #285 ) ) ;
#288 = VERTEX_POINT ( 'NONE', #23 ) ;
#289 = AXIS2_PLACEMENT_3D ( 'NONE', #123, #60, #244 ) ;
#290 = CARTESIAN_POINT ( 'NONE',  ( 5.100000000000001421, 6.245698675651502811E-16, 505.0000000000000000 ) ) ;
#291 = CARTESIAN_POINT ( 'NONE',  ( 8.000000000000000000, 9.797174393178825657E-16, 0.000000000000000000 ) ) ;
#292 = PERSON_AND_ORGANIZATION ( #211, #96 ) ;
#293 = AXIS2_PLACEMENT_3D ( 'NONE', #81, #84, #16 ) ;
#294 = CARTESIAN_POINT ( 'NONE',  ( 8.000000000000000000, 9.797174393178825657E-16, 5.000000000000000000 ) ) ;
#295 = CALENDAR_DATE ( 2022, 7, 7 ) ;
#296 = CARTESIAN_POINT ( 'NONE',  ( 0.000000000000000000, 0.000000000000000000, 505.0000000000000000 ) ) ;
#297 = LOCAL_TIME ( 11, 52, 12.00000000000000000, #153 ) ;
#298 = ADVANCED_FACE ( 'NONE', ( #181 ), #152, .F. ) ;
#299 = DATE_AND_TIME ( #220, #174 ) ;
#300 = ADVANCED_BREP_SHAPE_REPRESENTATION ( 'ca59', ( #78, #147 ), #98 ) ;
#301 = ORIENTED_EDGE ( 'NONE', *, *, #193, .F. ) ;
#302 = CARTESIAN_POINT ( 'NONE',  ( -5.100000000000001421, 0.000000000000000000, 505.0000000000000000 ) ) ;
#303 = CC_DESIGN_PERSON_AND_ORGANIZATION_ASSIGNMENT ( #292, #80, ( #66 ) ) ;
#304 = DIRECTION ( 'NONE',  ( -0.000000000000000000, -0.000000000000000000, -1.000000000000000000 ) ) ;
#305 = DIRECTION ( 'NONE',  ( 1.000000000000000000, 0.000000000000000000, 0.000000000000000000 ) ) ;
#306 = CARTESIAN_POINT ( 'NONE',  ( -5.300000000000000711, 6.490628035480971924E-16, 4.999999999999991118 ) ) ;
#307 = AXIS2_PLACEMENT_3D ( 'NONE', #268, #176, #156 ) ;
ENDSEC;
END-ISO-10303-21;
