ISO-10303-21;
HEADER;
FILE_DESCRIPTION (( 'STEP AP203' ),
    '1' );
FILE_NAME ('f199.STEP',
    '2022-07-07T10:29:31',
    ( '' ),
    ( '' ),
    'SwSTEP 2.0',
    'SolidWorks 2019',
    '' );
FILE_SCHEMA (( 'CONFIG_CONTROL_DESIGN' ));
ENDSEC;

DATA;
#1 = CARTESIAN_POINT ( 'NONE',  ( 3.000000000000000444, 3.673940397442060361E-16, 3.000000000000000000 ) ) ;
#2 = ORIENTED_EDGE ( 'NONE', *, *, #137, .F. ) ;
#3 = AXIS2_PLACEMENT_3D ( 'NONE', #135, #224, #274 ) ;
#4 = CC_DESIGN_PERSON_AND_ORGANIZATION_ASSIGNMENT ( #70, #211, ( #75 ) ) ;
#5 = CARTESIAN_POINT ( 'NONE',  ( 0.000000000000000000, 0.000000000000000000, 3.000000000000000000 ) ) ;
#6 = CC_DESIGN_PERSON_AND_ORGANIZATION_ASSIGNMENT ( #163, #97, ( #306 ) ) ;
#7 = CARTESIAN_POINT ( 'NONE',  ( 3.000000000000000444, 3.673940397442060361E-16, 0.000000000000000000 ) ) ;
#8 = ADVANCED_FACE ( 'NONE', ( #166 ), #173, .T. ) ;
#9 = EDGE_CURVE ( 'NONE', #118, #280, #52, .T. ) ;
#10 = VECTOR ( 'NONE', #132, 1000.000000000000000 ) ;
#11 = DIRECTION ( 'NONE',  ( 0.000000000000000000, 0.000000000000000000, 1.000000000000000000 ) ) ;
#12 = ADVANCED_FACE ( 'NONE', ( #128 ), #255, .T. ) ;
#13 = PERSON_AND_ORGANIZATION ( #94, #220 ) ;
#14 = ADVANCED_FACE ( 'NONE', ( #73 ), #236, .T. ) ;
#15 = APPROVAL_STATUS ( 'not_yet_approved' ) ;
#16 = PLANE ( 'NONE',  #246 ) ;
#17 = EDGE_LOOP ( 'NONE', ( #232, #285, #96, #44 ) ) ;
#18 = DATE_AND_TIME ( #214, #160 ) ;
#19 = CARTESIAN_POINT ( 'NONE',  ( 0.000000000000000000, 0.000000000000000000, 253.0000000000000000 ) ) ;
#20 = ORIENTED_EDGE ( 'NONE', *, *, #29, .T. ) ;
#21 = PERSON_AND_ORGANIZATION ( #94, #220 ) ;
#22 = DIRECTION ( 'NONE',  ( 1.000000000000000000, 0.000000000000000000, -0.000000000000000000 ) ) ;
#23 = VERTEX_POINT ( 'NONE', #238 ) ;
#24 = ORIENTED_EDGE ( 'NONE', *, *, #240, .F. ) ;
#25 = VERTEX_POINT ( 'NONE', #170 ) ;
#26 = FACE_OUTER_BOUND ( 'NONE', #191, .T. ) ;
#27 = EDGE_LOOP ( 'NONE', ( #264, #151, #213, #24 ) ) ;
#28 = CC_DESIGN_PERSON_AND_ORGANIZATION_ASSIGNMENT ( #93, #116, ( #105 ) ) ;
#29 = EDGE_CURVE ( 'NONE', #260, #280, #259, .T. ) ;
#30 = DIRECTION ( 'NONE',  ( 0.000000000000000000, 0.000000000000000000, -1.000000000000000000 ) ) ;
#31 = APPROVAL ( #269, 'NEURÈENÝ' ) ;
#32 = CARTESIAN_POINT ( 'NONE',  ( 1.600000000000000089, 1.959434878635765230E-16, 253.0000000000000000 ) ) ;
#33 = DIRECTION ( 'NONE',  ( 0.000000000000000000, 0.000000000000000000, 1.000000000000000000 ) ) ;
#34 = UNCERTAINTY_MEASURE_WITH_UNIT (LENGTH_MEASURE( 1.000000000000000082E-05 ), #57, 'distance_accuracy_value', 'NONE');
#35 = CIRCLE ( 'NONE', #286, 1.600000000000000089 ) ;
#36 = APPROVAL_PERSON_ORGANIZATION ( #142, #63, #187 ) ;
#37 = PLANE ( 'NONE',  #297 ) ;
#38 = CARTESIAN_POINT ( 'NONE',  ( 0.000000000000000000, 0.000000000000000000, 253.0000000000000000 ) ) ;
#39 = CARTESIAN_POINT ( 'NONE',  ( -3.000000000000000444, 0.000000000000000000, 3.000000000000000000 ) ) ;
#40 = APPROVAL ( #15, 'NEURÈENÝ' ) ;
#41 = DIRECTION ( 'NONE',  ( 0.000000000000000000, 0.000000000000000000, 1.000000000000000000 ) ) ;
#42 = DATE_TIME_ROLE ( 'creation_date' ) ;
#43 = DIRECTION ( 'NONE',  ( 0.000000000000000000, 0.000000000000000000, 1.000000000000000000 ) ) ;
#44 = ORIENTED_EDGE ( 'NONE', *, *, #186, .F. ) ;
#45 = SECURITY_CLASSIFICATION_LEVEL ( 'unclassified' ) ;
#46 = DIRECTION ( 'NONE',  ( -1.000000000000000000, 0.000000000000000000, 0.000000000000000000 ) ) ;
#47 = EDGE_LOOP ( 'NONE', ( #146, #77, #216, #239 ) ) ;
#48 = DIRECTION ( 'NONE',  ( 1.000000000000000000, 0.000000000000000000, 0.000000000000000000 ) ) ;
#49 = VERTEX_POINT ( 'NONE', #104 ) ;
#50 = AXIS2_PLACEMENT_3D ( 'NONE', #182, #291, #244 ) ;
#51 = AXIS2_PLACEMENT_3D ( 'NONE', #290, #112, #107 ) ;
#52 = CIRCLE ( 'NONE', #292, 3.000000000000000444 ) ;
#53 = DIRECTION ( 'NONE',  ( 0.000000000000000000, 0.000000000000000000, 1.000000000000000000 ) ) ;
#54 = CC_DESIGN_DATE_AND_TIME_ASSIGNMENT ( #60, #89, ( #58 ) ) ;
#55 = DIRECTION ( 'NONE',  ( 0.000000000000000000, -1.000000000000000000, 0.000000000000000000 ) ) ;
#56 = DIRECTION ( 'NONE',  ( 0.000000000000000000, 0.000000000000000000, 1.000000000000000000 ) ) ;
#57 =( LENGTH_UNIT ( ) NAMED_UNIT ( * ) SI_UNIT ( .MILLI., .METRE. ) );
#58 = SECURITY_CLASSIFICATION ( '', '', #45 ) ;
#59 = ADVANCED_FACE ( 'NONE', ( #121, #197 ), #215, .T. ) ;
#60 = DATE_AND_TIME ( #181, #202 ) ;
#61 = CARTESIAN_POINT ( 'NONE',  ( -3.000000000000000444, 0.000000000000000000, 0.000000000000000000 ) ) ;
#62 = VECTOR ( 'NONE', #221, 1000.000000000000000 ) ;
#63 = APPROVAL ( #252, 'NEURÈENÝ' ) ;
#64 = DIRECTION ( 'NONE',  ( 1.000000000000000000, 0.000000000000000000, 0.000000000000000000 ) ) ;
#65 = APPLICATION_CONTEXT ( 'configuration controlled 3d designs of mechanical parts and assemblies' ) ;
#66 = EDGE_CURVE ( 'NONE', #280, #118, #92, .T. ) ;
#67 = PERSON_AND_ORGANIZATION ( #94, #220 ) ;
#68 = CIRCLE ( 'NONE', #223, 1.800000000000000266 ) ;
#69 = CARTESIAN_POINT ( 'NONE',  ( 0.000000000000000000, 0.000000000000000000, 3.000000000000000000 ) ) ;
#70 = PERSON_AND_ORGANIZATION ( #94, #220 ) ;
#71 = ORIENTED_EDGE ( 'NONE', *, *, #279, .T. ) ;
#72 = APPROVAL_DATE_TIME ( #194, #63 ) ;
#73 = FACE_OUTER_BOUND ( 'NONE', #47, .T. ) ;
#74 = ORIENTED_EDGE ( 'NONE', *, *, #208, .T. ) ;
#75 = PRODUCT ( 'f199', 'f199', '', ( #168 ) ) ;
#76 = CARTESIAN_POINT ( 'NONE',  ( 0.000000000000000000, 0.000000000000000000, 0.000000000000000000 ) ) ;
#77 = ORIENTED_EDGE ( 'NONE', *, *, #227, .F. ) ;
#78 = AXIS2_PLACEMENT_3D ( 'NONE', #124, #53, #48 ) ;
#79 = ADVANCED_FACE ( 'NONE', ( #302 ), #99, .T. ) ;
#80 = CARTESIAN_POINT ( 'NONE',  ( -1.600000000000000089, 0.000000000000000000, 253.0000000000000000 ) ) ;
#81 = CLOSED_SHELL ( 'NONE', ( #161, #12, #79, #8, #59, #101, #14, #88, #136 ) ) ;
#82 = CARTESIAN_POINT ( 'NONE',  ( 0.000000000000000000, 0.000000000000000000, 3.200000000000008171 ) ) ;
#83 = APPLICATION_CONTEXT ( 'configuration controlled 3d designs of mechanical parts and assemblies' ) ;
#84 = ADVANCED_BREP_SHAPE_REPRESENTATION ( 'f199', ( #289, #199 ), #245 ) ;
#85 = CIRCLE ( 'NONE', #278, 0.2000000000000000944 ) ;
#86 = CC_DESIGN_DATE_AND_TIME_ASSIGNMENT ( #275, #42, ( #105 ) ) ;
#87 = CC_DESIGN_APPROVAL ( #63, ( #105 ) ) ;
#88 = ADVANCED_FACE ( 'NONE', ( #26 ), #37, .T. ) ;
#89 = DATE_TIME_ROLE ( 'classification_date' ) ;
#90 = DIRECTION ( 'NONE',  ( 1.000000000000000000, 0.000000000000000000, -0.000000000000000000 ) ) ;
#91 = CARTESIAN_POINT ( 'NONE',  ( 0.000000000000000000, 0.000000000000000000, 3.200000000000008171 ) ) ;
#92 = CIRCLE ( 'NONE', #78, 3.000000000000000444 ) ;
#93 = PERSON_AND_ORGANIZATION ( #94, #220 ) ;
#94 = PERSON ( 'NEURÈENÝ', 'NEURÈENÝ', 'NEURÈENÝ', ('NEURÈENÝ'), ('NEURÈENÝ'), ('NEURÈENÝ') ) ;
#95 = CARTESIAN_POINT ( 'NONE',  ( 0.000000000000000000, 0.000000000000000000, 253.0000000000000000 ) ) ;
#96 = ORIENTED_EDGE ( 'NONE', *, *, #240, .T. ) ;
#97 = PERSON_AND_ORGANIZATION_ROLE ( 'design_supplier' ) ;
#98 = AXIS2_PLACEMENT_3D ( 'NONE', #82, #230, #159 ) ;
#99 = CYLINDRICAL_SURFACE ( 'NONE', #133, 3.000000000000000444 ) ;
#100 = APPLICATION_PROTOCOL_DEFINITION ( 'international standard', 'config_control_design', 1994, #83 ) ;
#101 = ADVANCED_FACE ( 'NONE', ( #228 ), #16, .F. ) ;
#102 = DIRECTION ( 'NONE',  ( 1.000000000000000000, 0.000000000000000000, -0.000000000000000000 ) ) ;
#103 = ORIENTED_EDGE ( 'NONE', *, *, #183, .F. ) ;
#104 = CARTESIAN_POINT ( 'NONE',  ( -1.600000000000000089, 0.000000000000000000, 3.200000000000008171 ) ) ;
#105 = PRODUCT_DEFINITION ( 'NEZNÁMÝ', '', #306, #178 ) ;
#106 = DIRECTION ( 'NONE',  ( -0.000000000000000000, -0.000000000000000000, -1.000000000000000000 ) ) ;
#107 = DIRECTION ( 'NONE',  ( 1.000000000000000000, 0.000000000000000000, 0.000000000000000000 ) ) ;
#108 = TOROIDAL_SURFACE ( 'NONE', #271, 1.800000000000000266, 0.2000000000000000111 ) ;
#109 = EDGE_CURVE ( 'NONE', #169, #118, #141, .T. ) ;
#110 = VECTOR ( 'NONE', #117, 1000.000000000000000 ) ;
#111 = CIRCLE ( 'NONE', #50, 3.000000000000000444 ) ;
#112 = DIRECTION ( 'NONE',  ( 0.000000000000000000, 0.000000000000000000, 1.000000000000000000 ) ) ;
#113 = DIRECTION ( 'NONE',  ( 1.000000000000000000, 0.000000000000000000, 0.000000000000000000 ) ) ;
#114 = LOCAL_TIME ( 12, 29, 31.00000000000000000, #298 ) ;
#115 = CIRCLE ( 'NONE', #288, 1.800000000000000266 ) ;
#116 = PERSON_AND_ORGANIZATION_ROLE ( 'creator' ) ;
#117 = DIRECTION ( 'NONE',  ( -0.000000000000000000, -0.000000000000000000, -1.000000000000000000 ) ) ;
#118 = VERTEX_POINT ( 'NONE', #61 ) ;
#119 = CC_DESIGN_PERSON_AND_ORGANIZATION_ASSIGNMENT ( #67, #120, ( #306 ) ) ;
#120 = PERSON_AND_ORGANIZATION_ROLE ( 'creator' ) ;
#121 = FACE_BOUND ( 'NONE', #283, .T. ) ;
#122 = ORIENTED_EDGE ( 'NONE', *, *, #279, .F. ) ;
#123 = PERSON_AND_ORGANIZATION_ROLE ( 'classification_officer' ) ;
#124 = CARTESIAN_POINT ( 'NONE',  ( 0.000000000000000000, 0.000000000000000000, 0.000000000000000000 ) ) ;
#125 = EDGE_LOOP ( 'NONE', ( #103, #20, #174, #198 ) ) ;
#126 = LOCAL_TIME ( 12, 29, 31.00000000000000000, #138 ) ;
#127 = AXIS2_PLACEMENT_3D ( 'NONE', #150, #282, #263 ) ;
#128 = FACE_OUTER_BOUND ( 'NONE', #231, .T. ) ;
#129 = ORIENTED_EDGE ( 'NONE', *, *, #164, .T. ) ;
#130 = EDGE_CURVE ( 'NONE', #149, #23, #115, .T. ) ;
#131 = DIRECTION ( 'NONE',  ( 1.000000000000000000, 0.000000000000000000, 0.000000000000000000 ) ) ;
#132 = DIRECTION ( 'NONE',  ( -0.000000000000000000, -0.000000000000000000, -1.000000000000000000 ) ) ;
#133 = AXIS2_PLACEMENT_3D ( 'NONE', #152, #234, #218 ) ;
#134 = CC_DESIGN_PERSON_AND_ORGANIZATION_ASSIGNMENT ( #21, #123, ( #58 ) ) ;
#135 = CARTESIAN_POINT ( 'NONE',  ( -1.800000000000000266, 2.204364238465236069E-16, 3.200000000000008171 ) ) ;
#136 = ADVANCED_FACE ( 'NONE', ( #200 ), #158, .F. ) ;
#137 = EDGE_CURVE ( 'NONE', #25, #49, #294, .T. ) ;
#138 = COORDINATED_UNIVERSAL_TIME_OFFSET ( 1, 0, .AHEAD. ) ;
#139 = CARTESIAN_POINT ( 'NONE',  ( 0.000000000000000000, 0.000000000000000000, 253.0000000000000000 ) ) ;
#140 = CARTESIAN_POINT ( 'NONE',  ( -3.000000000000000444, 0.000000000000000000, 3.000000000000000000 ) ) ;
#141 = LINE ( 'NONE', #39, #185 ) ;
#142 = PERSON_AND_ORGANIZATION ( #94, #220 ) ;
#143 = CIRCLE ( 'NONE', #98, 1.600000000000000089 ) ;
#144 = APPROVAL_ROLE ( '' ) ;
#145 = ORIENTED_EDGE ( 'NONE', *, *, #130, .T. ) ;
#146 = ORIENTED_EDGE ( 'NONE', *, *, #261, .F. ) ;
#147 = COORDINATED_UNIVERSAL_TIME_OFFSET ( 1, 0, .AHEAD. ) ;
#148 = DIRECTION ( 'NONE',  ( -1.000000000000000000, 0.000000000000000000, 0.000000000000000000 ) ) ;
#149 = VERTEX_POINT ( 'NONE', #293 ) ;
#150 = CARTESIAN_POINT ( 'NONE',  ( 0.000000000000000000, 0.000000000000000000, 3.000000000000000000 ) ) ;
#151 = ORIENTED_EDGE ( 'NONE', *, *, #188, .T. ) ;
#152 = CARTESIAN_POINT ( 'NONE',  ( 0.000000000000000000, 0.000000000000000000, 3.000000000000000000 ) ) ;
#153 = EDGE_LOOP ( 'NONE', ( #195, #167 ) ) ;
#154 = CIRCLE ( 'NONE', #241, 1.600000000000000089 ) ;
#155 = EDGE_CURVE ( 'NONE', #49, #233, #304, .T. ) ;
#156 = LINE ( 'NONE', #32, #10 ) ;
#157 = CC_DESIGN_APPROVAL ( #31, ( #58 ) ) ;
#158 = TOROIDAL_SURFACE ( 'NONE', #51, 1.800000000000000266, 0.2000000000000000111 ) ;
#159 = DIRECTION ( 'NONE',  ( 1.000000000000000000, 0.000000000000000000, 0.000000000000000000 ) ) ;
#160 = LOCAL_TIME ( 12, 29, 31.00000000000000000, #209 ) ;
#161 = ADVANCED_FACE ( 'NONE', ( #270 ), #108, .F. ) ;
#162 = CARTESIAN_POINT ( 'NONE',  ( 1.600000000000000089, 1.959434878635765230E-16, 3.200000000000008171 ) ) ;
#163 = PERSON_AND_ORGANIZATION ( #94, #220 ) ;
#164 = EDGE_CURVE ( 'NONE', #233, #49, #143, .T. ) ;
#165 =( NAMED_UNIT ( * ) SI_UNIT ( $, .STERADIAN. ) SOLID_ANGLE_UNIT ( ) );
#166 = FACE_OUTER_BOUND ( 'NONE', #193, .T. ) ;
#167 = ORIENTED_EDGE ( 'NONE', *, *, #66, .F. ) ;
#168 = MECHANICAL_CONTEXT ( 'NONE', #65, 'mechanical' ) ;
#169 = VERTEX_POINT ( 'NONE', #140 ) ;
#170 = CARTESIAN_POINT ( 'NONE',  ( -1.600000000000000089, 0.000000000000000000, 253.0000000000000000 ) ) ;
#171 = VERTEX_POINT ( 'NONE', #207 ) ;
#172 = CIRCLE ( 'NONE', #3, 0.1999999999999998723 ) ;
#173 = CYLINDRICAL_SURFACE ( 'NONE', #127, 3.000000000000000444 ) ;
#174 = ORIENTED_EDGE ( 'NONE', *, *, #66, .T. ) ;
#175 = AXIS2_PLACEMENT_3D ( 'NONE', #95, #219, #46 ) ;
#176 = CARTESIAN_POINT ( 'NONE',  ( 0.000000000000000000, 0.000000000000000000, 3.000000000000000000 ) ) ;
#177 = CARTESIAN_POINT ( 'NONE',  ( 0.000000000000000000, 0.000000000000000000, 253.0000000000000000 ) ) ;
#178 = DESIGN_CONTEXT ( 'detailed design', #83, 'design' ) ;
#179 = DIRECTION ( 'NONE',  ( 0.000000000000000000, 0.000000000000000000, 1.000000000000000000 ) ) ;
#180 = APPROVAL_DATE_TIME ( #225, #31 ) ;
#181 = CALENDAR_DATE ( 2022, 7, 7 ) ;
#182 = CARTESIAN_POINT ( 'NONE',  ( 0.000000000000000000, 0.000000000000000000, 3.000000000000000000 ) ) ;
#183 = EDGE_CURVE ( 'NONE', #260, #169, #111, .T. ) ;
#184 = CARTESIAN_POINT ( 'NONE',  ( 0.000000000000000000, 0.000000000000000000, 3.200000000000008171 ) ) ;
#185 = VECTOR ( 'NONE', #203, 1000.000000000000000 ) ;
#186 = EDGE_CURVE ( 'NONE', #23, #149, #68, .T. ) ;
#187 = APPROVAL_ROLE ( '' ) ;
#188 = EDGE_CURVE ( 'NONE', #49, #23, #172, .T. ) ;
#189 = CALENDAR_DATE ( 2022, 7, 7 ) ;
#190 = DIRECTION ( 'NONE',  ( -0.000000000000000000, -0.000000000000000000, -1.000000000000000000 ) ) ;
#191 = EDGE_LOOP ( 'NONE', ( #299, #74 ) ) ;
#192 = LOCAL_TIME ( 12, 29, 31.00000000000000000, #147 ) ;
#193 = EDGE_LOOP ( 'NONE', ( #300, #122, #254, #277 ) ) ;
#194 = DATE_AND_TIME ( #189, #192 ) ;
#195 = ORIENTED_EDGE ( 'NONE', *, *, #9, .F. ) ;
#196 = ORIENTED_EDGE ( 'NONE', *, *, #186, .T. ) ;
#197 = FACE_OUTER_BOUND ( 'NONE', #284, .T. ) ;
#198 = ORIENTED_EDGE ( 'NONE', *, *, #109, .F. ) ;
#199 = AXIS2_PLACEMENT_3D ( 'NONE', #281, #41, #113 ) ;
#200 = FACE_OUTER_BOUND ( 'NONE', #17, .T. ) ;
#201 = DIRECTION ( 'NONE',  ( 0.000000000000000000, 0.000000000000000000, 1.000000000000000000 ) ) ;
#202 = LOCAL_TIME ( 12, 29, 31.00000000000000000, #217 ) ;
#203 = DIRECTION ( 'NONE',  ( -0.000000000000000000, -0.000000000000000000, -1.000000000000000000 ) ) ;
#204 = PERSON_AND_ORGANIZATION ( #94, #220 ) ;
#205 =( NAMED_UNIT ( * ) PLANE_ANGLE_UNIT ( ) SI_UNIT ( $, .RADIAN. ) );
#206 = APPROVAL_PERSON_ORGANIZATION ( #204, #31, #295 ) ;
#207 = CARTESIAN_POINT ( 'NONE',  ( 1.600000000000000089, 1.959434878635765230E-16, 253.0000000000000000 ) ) ;
#208 = EDGE_CURVE ( 'NONE', #171, #25, #154, .T. ) ;
#209 = COORDINATED_UNIVERSAL_TIME_OFFSET ( 1, 0, .AHEAD. ) ;
#210 = AXIS2_PLACEMENT_3D ( 'NONE', #19, #190, #148 ) ;
#211 = PERSON_AND_ORGANIZATION_ROLE ( 'design_owner' ) ;
#212 = CARTESIAN_POINT ( 'NONE',  ( 0.000000000000000000, 0.000000000000000000, 0.000000000000000000 ) ) ;
#213 = ORIENTED_EDGE ( 'NONE', *, *, #130, .F. ) ;
#214 = CALENDAR_DATE ( 2022, 7, 7 ) ;
#215 = PLANE ( 'NONE',  #273 ) ;
#216 = ORIENTED_EDGE ( 'NONE', *, *, #137, .T. ) ;
#217 = COORDINATED_UNIVERSAL_TIME_OFFSET ( 1, 0, .AHEAD. ) ;
#218 = DIRECTION ( 'NONE',  ( -1.000000000000000000, 0.000000000000000000, 0.000000000000000000 ) ) ;
#219 = DIRECTION ( 'NONE',  ( -0.000000000000000000, -0.000000000000000000, -1.000000000000000000 ) ) ;
#220 = ORGANIZATION ( 'NEURÈENÝ', 'NEURÈENÝ', '' ) ;
#221 = DIRECTION ( 'NONE',  ( -0.000000000000000000, -0.000000000000000000, -1.000000000000000000 ) ) ;
#222 = DIRECTION ( 'NONE',  ( 1.000000000000000000, 0.000000000000000000, 0.000000000000000000 ) ) ;
#223 = AXIS2_PLACEMENT_3D ( 'NONE', #176, #243, #229 ) ;
#224 = DIRECTION ( 'NONE',  ( 1.224646799147353207E-16, 1.000000000000000000, -0.000000000000000000 ) ) ;
#225 = DATE_AND_TIME ( #247, #126 ) ;
#226 = SHAPE_DEFINITION_REPRESENTATION ( #237, #84 ) ;
#227 = EDGE_CURVE ( 'NONE', #25, #171, #35, .T. ) ;
#228 = FACE_OUTER_BOUND ( 'NONE', #153, .T. ) ;
#229 = DIRECTION ( 'NONE',  ( 1.000000000000000000, 0.000000000000000000, 0.000000000000000000 ) ) ;
#230 = DIRECTION ( 'NONE',  ( 0.000000000000000000, 0.000000000000000000, 1.000000000000000000 ) ) ;
#231 = EDGE_LOOP ( 'NONE', ( #256, #235, #129, #2 ) ) ;
#232 = ORIENTED_EDGE ( 'NONE', *, *, #188, .F. ) ;
#233 = VERTEX_POINT ( 'NONE', #162 ) ;
#234 = DIRECTION ( 'NONE',  ( -0.000000000000000000, -0.000000000000000000, -1.000000000000000000 ) ) ;
#235 = ORIENTED_EDGE ( 'NONE', *, *, #261, .T. ) ;
#236 = CYLINDRICAL_SURFACE ( 'NONE', #210, 1.600000000000000089 ) ;
#237 = PRODUCT_DEFINITION_SHAPE ( 'NONE', 'NONE',  #105 ) ;
#238 = CARTESIAN_POINT ( 'NONE',  ( -1.800000000000000266, 2.204364238465236069E-16, 3.000000000000004441 ) ) ;
#239 = ORIENTED_EDGE ( 'NONE', *, *, #155, .T. ) ;
#240 = EDGE_CURVE ( 'NONE', #233, #149, #85, .T. ) ;
#241 = AXIS2_PLACEMENT_3D ( 'NONE', #38, #11, #265 ) ;
#242 = DIRECTION ( 'NONE',  ( 1.000000000000000000, 0.000000000000000000, 0.000000000000000000 ) ) ;
#243 = DIRECTION ( 'NONE',  ( -0.000000000000000000, -0.000000000000000000, -1.000000000000000000 ) ) ;
#244 = DIRECTION ( 'NONE',  ( 1.000000000000000000, 0.000000000000000000, 0.000000000000000000 ) ) ;
#245 =( GEOMETRIC_REPRESENTATION_CONTEXT ( 3 ) GLOBAL_UNCERTAINTY_ASSIGNED_CONTEXT ( ( #34 ) ) GLOBAL_UNIT_ASSIGNED_CONTEXT ( ( #57, #205, #165 ) ) REPRESENTATION_CONTEXT ( 'NONE', 'WORKASPACE' ) );
#246 = AXIS2_PLACEMENT_3D ( 'NONE', #212, #296, #90 ) ;
#247 = CALENDAR_DATE ( 2022, 7, 7 ) ;
#248 = PRODUCT_RELATED_PRODUCT_CATEGORY ( 'detail', '', ( #75 ) ) ;
#249 = AXIS2_PLACEMENT_3D ( 'NONE', #250, #56, #222 ) ;
#250 = CARTESIAN_POINT ( 'NONE',  ( 0.000000000000000000, 0.000000000000000000, 3.000000000000000000 ) ) ;
#251 = CARTESIAN_POINT ( 'NONE',  ( 1.800000000000000266, 0.000000000000000000, 3.200000000000008171 ) ) ;
#252 = APPROVAL_STATUS ( 'not_yet_approved' ) ;
#253 = DIRECTION ( 'NONE',  ( 0.000000000000000000, 0.000000000000000000, 1.000000000000000000 ) ) ;
#254 = ORIENTED_EDGE ( 'NONE', *, *, #109, .T. ) ;
#255 = CYLINDRICAL_SURFACE ( 'NONE', #175, 1.600000000000000089 ) ;
#256 = ORIENTED_EDGE ( 'NONE', *, *, #208, .F. ) ;
#257 = CIRCLE ( 'NONE', #249, 3.000000000000000444 ) ;
#258 = CALENDAR_DATE ( 2022, 7, 7 ) ;
#259 = LINE ( 'NONE', #1, #110 ) ;
#260 = VERTEX_POINT ( 'NONE', #266 ) ;
#261 = EDGE_CURVE ( 'NONE', #171, #233, #156, .T. ) ;
#262 = APPROVAL_PERSON_ORGANIZATION ( #13, #40, #144 ) ;
#263 = DIRECTION ( 'NONE',  ( -1.000000000000000000, 0.000000000000000000, 0.000000000000000000 ) ) ;
#264 = ORIENTED_EDGE ( 'NONE', *, *, #155, .F. ) ;
#265 = DIRECTION ( 'NONE',  ( 1.000000000000000000, 0.000000000000000000, 0.000000000000000000 ) ) ;
#266 = CARTESIAN_POINT ( 'NONE',  ( 3.000000000000000444, 3.673940397442060361E-16, 3.000000000000000000 ) ) ;
#267 = DIRECTION ( 'NONE',  ( 1.000000000000000000, 0.000000000000000000, 0.000000000000000000 ) ) ;
#268 = AXIS2_PLACEMENT_3D ( 'NONE', #91, #201, #131 ) ;
#269 = APPROVAL_STATUS ( 'not_yet_approved' ) ;
#270 = FACE_OUTER_BOUND ( 'NONE', #27, .T. ) ;
#271 = AXIS2_PLACEMENT_3D ( 'NONE', #184, #179, #267 ) ;
#272 = CC_DESIGN_APPROVAL ( #40, ( #306 ) ) ;
#273 = AXIS2_PLACEMENT_3D ( 'NONE', #69, #43, #22 ) ;
#274 = DIRECTION ( 'NONE',  ( -1.000000000000000000, 1.224646799147354686E-16, 0.000000000000000000 ) ) ;
#275 = DATE_AND_TIME ( #258, #114 ) ;
#276 = DIRECTION ( 'NONE',  ( 1.000000000000000000, 0.000000000000000000, 0.000000000000000000 ) ) ;
#277 = ORIENTED_EDGE ( 'NONE', *, *, #9, .T. ) ;
#278 = AXIS2_PLACEMENT_3D ( 'NONE', #251, #55, #30 ) ;
#279 = EDGE_CURVE ( 'NONE', #169, #260, #257, .T. ) ;
#280 = VERTEX_POINT ( 'NONE', #7 ) ;
#281 = CARTESIAN_POINT ( 'NONE',  ( 0.000000000000000000, 0.000000000000000000, 0.000000000000000000 ) ) ;
#282 = DIRECTION ( 'NONE',  ( -0.000000000000000000, -0.000000000000000000, -1.000000000000000000 ) ) ;
#283 = EDGE_LOOP ( 'NONE', ( #145, #196 ) ) ;
#284 = EDGE_LOOP ( 'NONE', ( #71, #303 ) ) ;
#285 = ORIENTED_EDGE ( 'NONE', *, *, #164, .F. ) ;
#286 = AXIS2_PLACEMENT_3D ( 'NONE', #177, #33, #64 ) ;
#287 = CC_DESIGN_SECURITY_CLASSIFICATION ( #58, ( #306 ) ) ;
#288 = AXIS2_PLACEMENT_3D ( 'NONE', #5, #106, #242 ) ;
#289 = MANIFOLD_SOLID_BREP ( 'Zaoblit1', #81 ) ;
#290 = CARTESIAN_POINT ( 'NONE',  ( 0.000000000000000000, 0.000000000000000000, 3.200000000000008171 ) ) ;
#291 = DIRECTION ( 'NONE',  ( 0.000000000000000000, 0.000000000000000000, 1.000000000000000000 ) ) ;
#292 = AXIS2_PLACEMENT_3D ( 'NONE', #76, #253, #276 ) ;
#293 = CARTESIAN_POINT ( 'NONE',  ( 1.800000000000000266, 0.000000000000000000, 3.000000000000004441 ) ) ;
#294 = LINE ( 'NONE', #80, #62 ) ;
#295 = APPROVAL_ROLE ( '' ) ;
#296 = DIRECTION ( 'NONE',  ( 0.000000000000000000, 0.000000000000000000, 1.000000000000000000 ) ) ;
#297 = AXIS2_PLACEMENT_3D ( 'NONE', #139, #307, #102 ) ;
#298 = COORDINATED_UNIVERSAL_TIME_OFFSET ( 1, 0, .AHEAD. ) ;
#299 = ORIENTED_EDGE ( 'NONE', *, *, #227, .T. ) ;
#300 = ORIENTED_EDGE ( 'NONE', *, *, #29, .F. ) ;
#301 = APPROVAL_DATE_TIME ( #18, #40 ) ;
#302 = FACE_OUTER_BOUND ( 'NONE', #125, .T. ) ;
#303 = ORIENTED_EDGE ( 'NONE', *, *, #183, .T. ) ;
#304 = CIRCLE ( 'NONE', #268, 1.600000000000000089 ) ;
#305 = APPLICATION_PROTOCOL_DEFINITION ( 'international standard', 'config_control_design', 1994, #65 ) ;
#306 = PRODUCT_DEFINITION_FORMATION_WITH_SPECIFIED_SOURCE ( 'LIBOVOLNÝ', '', #75, .NOT_KNOWN. ) ;
#307 = DIRECTION ( 'NONE',  ( 0.000000000000000000, 0.000000000000000000, 1.000000000000000000 ) ) ;
ENDSEC;
END-ISO-10303-21;
