ISO-10303-21;
HEADER;
FILE_DESCRIPTION (( 'STEP AP203' ),
    '1' );
FILE_NAME ('c561.STEP',
    '2023-02-12T12:47:41',
    ( '' ),
    ( '' ),
    'SwSTEP 2.0',
    'SolidWorks 2019',
    '' );
FILE_SCHEMA (( 'CONFIG_CONTROL_DESIGN' ));
ENDSEC;

DATA;
#1 = PLANE ( 'NONE',  #240 ) ;
#2 = LINE ( 'NONE', #58, #8 ) ;
#3 = DATE_TIME_ROLE ( 'classification_date' ) ;
#4 = CC_DESIGN_APPROVAL ( #159, ( #176 ) ) ;
#5 = EDGE_CURVE ( 'NONE', #59, #106, #218, .T. ) ;
#6 = PERSON_AND_ORGANIZATION ( #44, #197 ) ;
#7 = ADVANCED_FACE ( 'NONE', ( #149 ), #1, .T. ) ;
#8 = VECTOR ( 'NONE', #251, 1000.000000000000000 ) ;
#9 = DATE_AND_TIME ( #140, #105 ) ;
#10 = EDGE_LOOP ( 'NONE', ( #17, #215, #100, #242 ) ) ;
#11 = AXIS2_PLACEMENT_3D ( 'NONE', #224, #186, #92 ) ;
#12 = APPROVAL ( #189, 'NEURÈENÝ' ) ;
#13 = CC_DESIGN_DATE_AND_TIME_ASSIGNMENT ( #135, #3, ( #176 ) ) ;
#14 = CARTESIAN_POINT ( 'NONE',  ( 0.000000000000000000, 0.000000000000000000, 3.000000000000000000 ) ) ;
#15 = DIRECTION ( 'NONE',  ( 0.000000000000000000, 0.000000000000000000, 1.000000000000000000 ) ) ;
#16 = CARTESIAN_POINT ( 'NONE',  ( 0.000000000000000000, 0.000000000000000000, 125.0000000000000000 ) ) ;
#17 = ORIENTED_EDGE ( 'NONE', *, *, #207, .F. ) ;
#18 =( NAMED_UNIT ( * ) PLANE_ANGLE_UNIT ( ) SI_UNIT ( $, .RADIAN. ) );
#19 = LINE ( 'NONE', #118, #243 ) ;
#20 = APPROVAL ( #187, 'NEURÈENÝ' ) ;
#21 = APPLICATION_CONTEXT ( 'configuration controlled 3d designs of mechanical parts and assemblies' ) ;
#22 = COORDINATED_UNIVERSAL_TIME_OFFSET ( 1, 0, .AHEAD. ) ;
#23 = LINE ( 'NONE', #174, #120 ) ;
#24 = COORDINATED_UNIVERSAL_TIME_OFFSET ( 1, 0, .AHEAD. ) ;
#25 = VERTEX_POINT ( 'NONE', #235 ) ;
#26 = SHAPE_DEFINITION_REPRESENTATION ( #72, #220 ) ;
#27 = AXIS2_PLACEMENT_3D ( 'NONE', #94, #227, #54 ) ;
#28 = ORIENTED_EDGE ( 'NONE', *, *, #221, .F. ) ;
#29 = ORIENTED_EDGE ( 'NONE', *, *, #57, .F. ) ;
#30 = EDGE_CURVE ( 'NONE', #45, #178, #98, .T. ) ;
#31 = ORIENTED_EDGE ( 'NONE', *, *, #5, .F. ) ;
#32 = PRODUCT_RELATED_PRODUCT_CATEGORY ( 'detail', '', ( #150 ) ) ;
#33 = DIRECTION ( 'NONE',  ( -0.000000000000000000, -0.000000000000000000, -1.000000000000000000 ) ) ;
#34 = DIRECTION ( 'NONE',  ( 0.000000000000000000, 0.000000000000000000, 1.000000000000000000 ) ) ;
#35 = LOCAL_TIME ( 13, 47, 41.00000000000000000, #22 ) ;
#36 = AXIS2_PLACEMENT_3D ( 'NONE', #163, #183, #91 ) ;
#37 = CARTESIAN_POINT ( 'NONE',  ( 0.000000000000000000, 0.000000000000000000, 3.000000000000000000 ) ) ;
#38 = DIRECTION ( 'NONE',  ( 1.000000000000000000, 0.000000000000000000, 0.000000000000000000 ) ) ;
#39 = ORIENTED_EDGE ( 'NONE', *, *, #57, .T. ) ;
#40 = EDGE_CURVE ( 'NONE', #25, #51, #19, .T. ) ;
#41 = PERSON_AND_ORGANIZATION ( #44, #197 ) ;
#42 =( GEOMETRIC_REPRESENTATION_CONTEXT ( 3 ) GLOBAL_UNCERTAINTY_ASSIGNED_CONTEXT ( ( #253 ) ) GLOBAL_UNIT_ASSIGNED_CONTEXT ( ( #181, #18, #148 ) ) REPRESENTATION_CONTEXT ( 'NONE', 'WORKASPACE' ) );
#43 = VERTEX_POINT ( 'NONE', #210 ) ;
#44 = PERSON ( 'NEURÈENÝ', 'NEURÈENÝ', 'NEURÈENÝ', ('NEURÈENÝ'), ('NEURÈENÝ'), ('NEURÈENÝ') ) ;
#45 = VERTEX_POINT ( 'NONE', #190 ) ;
#46 = PERSON_AND_ORGANIZATION ( #44, #197 ) ;
#47 = ORIENTED_EDGE ( 'NONE', *, *, #62, .T. ) ;
#48 = ORIENTED_EDGE ( 'NONE', *, *, #221, .T. ) ;
#49 = DIRECTION ( 'NONE',  ( 1.000000000000000000, 0.000000000000000000, 0.000000000000000000 ) ) ;
#50 = AXIS2_PLACEMENT_3D ( 'NONE', #161, #201, #71 ) ;
#51 = VERTEX_POINT ( 'NONE', #184 ) ;
#52 = EDGE_CURVE ( 'NONE', #43, #106, #23, .T. ) ;
#53 = DIRECTION ( 'NONE',  ( 0.000000000000000000, 0.000000000000000000, 1.000000000000000000 ) ) ;
#54 = DIRECTION ( 'NONE',  ( -1.000000000000000000, 0.000000000000000000, 0.000000000000000000 ) ) ;
#55 = PLANE ( 'NONE',  #50 ) ;
#56 = CARTESIAN_POINT ( 'NONE',  ( 0.000000000000000000, 0.000000000000000000, 3.000000000000000000 ) ) ;
#57 = EDGE_CURVE ( 'NONE', #138, #59, #2, .T. ) ;
#58 = CARTESIAN_POINT ( 'NONE',  ( -3.000000000000000444, 0.000000000000000000, 3.000000000000000000 ) ) ;
#59 = VERTEX_POINT ( 'NONE', #74 ) ;
#60 = PERSON_AND_ORGANIZATION ( #44, #197 ) ;
#61 = CARTESIAN_POINT ( 'NONE',  ( -1.500000000000000222, 0.000000000000000000, 125.0000000000000000 ) ) ;
#62 = EDGE_CURVE ( 'NONE', #106, #59, #155, .T. ) ;
#63 = AXIS2_PLACEMENT_3D ( 'NONE', #131, #117, #67 ) ;
#64 = CALENDAR_DATE ( 2023, 12, 2 ) ;
#65 = ORIENTED_EDGE ( 'NONE', *, *, #5, .T. ) ;
#66 = PERSON_AND_ORGANIZATION ( #44, #197 ) ;
#67 = DIRECTION ( 'NONE',  ( 1.000000000000000000, 0.000000000000000000, 0.000000000000000000 ) ) ;
#68 = ORIENTED_EDGE ( 'NONE', *, *, #195, .F. ) ;
#69 = ORIENTED_EDGE ( 'NONE', *, *, #207, .T. ) ;
#70 = AXIS2_PLACEMENT_3D ( 'NONE', #198, #33, #145 ) ;
#71 = DIRECTION ( 'NONE',  ( 1.000000000000000000, 0.000000000000000000, -0.000000000000000000 ) ) ;
#72 = PRODUCT_DEFINITION_SHAPE ( 'NONE', 'NONE',  #141 ) ;
#73 = DIRECTION ( 'NONE',  ( 0.000000000000000000, 0.000000000000000000, 1.000000000000000000 ) ) ;
#74 = CARTESIAN_POINT ( 'NONE',  ( -3.000000000000000444, 0.000000000000000000, 0.000000000000000000 ) ) ;
#75 = DIRECTION ( 'NONE',  ( 0.000000000000000000, 0.000000000000000000, 1.000000000000000000 ) ) ;
#76 = DESIGN_CONTEXT ( 'detailed design', #97, 'design' ) ;
#77 = DIRECTION ( 'NONE',  ( 1.000000000000000000, 0.000000000000000000, 0.000000000000000000 ) ) ;
#78 = DIRECTION ( 'NONE',  ( 0.000000000000000000, 0.000000000000000000, 1.000000000000000000 ) ) ;
#79 = AXIS2_PLACEMENT_3D ( 'NONE', #14, #53, #38 ) ;
#80 = APPROVAL_ROLE ( '' ) ;
#81 = DATE_TIME_ROLE ( 'creation_date' ) ;
#82 = ORIENTED_EDGE ( 'NONE', *, *, #52, .T. ) ;
#83 = LOCAL_TIME ( 13, 47, 41.00000000000000000, #208 ) ;
#84 = DATE_AND_TIME ( #229, #226 ) ;
#85 = EDGE_LOOP ( 'NONE', ( #157, #28, #132, #168 ) ) ;
#86 = CC_DESIGN_DATE_AND_TIME_ASSIGNMENT ( #191, #81, ( #141 ) ) ;
#87 = CIRCLE ( 'NONE', #79, 3.000000000000000444 ) ;
#88 = EDGE_LOOP ( 'NONE', ( #48, #69 ) ) ;
#89 = CIRCLE ( 'NONE', #209, 1.500000000000000222 ) ;
#90 = CARTESIAN_POINT ( 'NONE',  ( -3.000000000000000444, 0.000000000000000000, 3.000000000000000000 ) ) ;
#91 = DIRECTION ( 'NONE',  ( 1.000000000000000000, 0.000000000000000000, -0.000000000000000000 ) ) ;
#92 = DIRECTION ( 'NONE',  ( 1.000000000000000000, 0.000000000000000000, 0.000000000000000000 ) ) ;
#93 = APPROVAL_PERSON_ORGANIZATION ( #175, #20, #238 ) ;
#94 = CARTESIAN_POINT ( 'NONE',  ( 0.000000000000000000, 0.000000000000000000, 125.0000000000000000 ) ) ;
#95 = FACE_OUTER_BOUND ( 'NONE', #204, .T. ) ;
#96 = DIRECTION ( 'NONE',  ( 0.000000000000000000, 0.000000000000000000, 1.000000000000000000 ) ) ;
#97 = APPLICATION_CONTEXT ( 'configuration controlled 3d designs of mechanical parts and assemblies' ) ;
#98 = LINE ( 'NONE', #61, #109 ) ;
#99 = PERSON_AND_ORGANIZATION ( #44, #197 ) ;
#100 = ORIENTED_EDGE ( 'NONE', *, *, #153, .T. ) ;
#101 = MECHANICAL_CONTEXT ( 'NONE', #21, 'mechanical' ) ;
#102 = COORDINATED_UNIVERSAL_TIME_OFFSET ( 1, 0, .AHEAD. ) ;
#103 = ORIENTED_EDGE ( 'NONE', *, *, #62, .F. ) ;
#104 = CC_DESIGN_PERSON_AND_ORGANIZATION_ASSIGNMENT ( #173, #236, ( #158 ) ) ;
#105 = LOCAL_TIME ( 13, 47, 41.00000000000000000, #180 ) ;
#106 = VERTEX_POINT ( 'NONE', #249 ) ;
#107 = CARTESIAN_POINT ( 'NONE',  ( 0.000000000000000000, 0.000000000000000000, 3.000000000000000000 ) ) ;
#108 = DIRECTION ( 'NONE',  ( 1.000000000000000000, 0.000000000000000000, 0.000000000000000000 ) ) ;
#109 = VECTOR ( 'NONE', #172, 1000.000000000000000 ) ;
#110 = DIRECTION ( 'NONE',  ( 0.000000000000000000, 0.000000000000000000, 1.000000000000000000 ) ) ;
#111 = ORIENTED_EDGE ( 'NONE', *, *, #136, .F. ) ;
#112 = CYLINDRICAL_SURFACE ( 'NONE', #193, 3.000000000000000444 ) ;
#113 = ADVANCED_FACE ( 'NONE', ( #144 ), #55, .F. ) ;
#114 = PERSON_AND_ORGANIZATION_ROLE ( 'creator' ) ;
#115 = ORIENTED_EDGE ( 'NONE', *, *, #195, .T. ) ;
#116 = AXIS2_PLACEMENT_3D ( 'NONE', #37, #34, #108 ) ;
#117 = DIRECTION ( 'NONE',  ( 0.000000000000000000, 0.000000000000000000, 1.000000000000000000 ) ) ;
#118 = CARTESIAN_POINT ( 'NONE',  ( 1.500000000000000222, 1.836970198721029934E-16, 125.0000000000000000 ) ) ;
#119 = APPLICATION_PROTOCOL_DEFINITION ( 'international standard', 'config_control_design', 1994, #97 ) ;
#120 = VECTOR ( 'NONE', #252, 1000.000000000000000 ) ;
#121 = LOCAL_TIME ( 13, 47, 41.00000000000000000, #24 ) ;
#122 = PERSON_AND_ORGANIZATION_ROLE ( 'design_owner' ) ;
#123 = EDGE_LOOP ( 'NONE', ( #232, #115 ) ) ;
#124 = CC_DESIGN_PERSON_AND_ORGANIZATION_ASSIGNMENT ( #46, #122, ( #150 ) ) ;
#125 = AXIS2_PLACEMENT_3D ( 'NONE', #228, #78, #206 ) ;
#126 = CARTESIAN_POINT ( 'NONE',  ( -1.500000000000000222, 0.000000000000000000, 3.000000000000000000 ) ) ;
#127 = FACE_BOUND ( 'NONE', #179, .T. ) ;
#128 = CARTESIAN_POINT ( 'NONE',  ( 0.000000000000000000, 0.000000000000000000, 125.0000000000000000 ) ) ;
#129 = AXIS2_PLACEMENT_3D ( 'NONE', #107, #110, #49 ) ;
#130 = DIRECTION ( 'NONE',  ( -0.000000000000000000, -0.000000000000000000, -1.000000000000000000 ) ) ;
#131 = CARTESIAN_POINT ( 'NONE',  ( 0.000000000000000000, 0.000000000000000000, 0.000000000000000000 ) ) ;
#132 = ORIENTED_EDGE ( 'NONE', *, *, #30, .T. ) ;
#133 = PERSON_AND_ORGANIZATION_ROLE ( 'classification_officer' ) ;
#134 = DIRECTION ( 'NONE',  ( -0.000000000000000000, -0.000000000000000000, -1.000000000000000000 ) ) ;
#135 = DATE_AND_TIME ( #64, #83 ) ;
#136 = EDGE_CURVE ( 'NONE', #138, #43, #87, .T. ) ;
#137 = AXIS2_PLACEMENT_3D ( 'NONE', #250, #130, #200 ) ;
#138 = VERTEX_POINT ( 'NONE', #90 ) ;
#139 = CC_DESIGN_SECURITY_CLASSIFICATION ( #176, ( #158 ) ) ;
#140 = CALENDAR_DATE ( 2023, 12, 2 ) ;
#141 = PRODUCT_DEFINITION ( 'NEZNÁMÝ', '', #158, #76 ) ;
#142 = FACE_OUTER_BOUND ( 'NONE', #230, .T. ) ;
#143 = DIRECTION ( 'NONE',  ( 1.000000000000000000, 0.000000000000000000, 0.000000000000000000 ) ) ;
#144 = FACE_OUTER_BOUND ( 'NONE', #239, .T. ) ;
#145 = DIRECTION ( 'NONE',  ( -1.000000000000000000, 0.000000000000000000, 0.000000000000000000 ) ) ;
#146 = FACE_OUTER_BOUND ( 'NONE', #10, .T. ) ;
#147 = ORIENTED_EDGE ( 'NONE', *, *, #52, .F. ) ;
#148 =( NAMED_UNIT ( * ) SI_UNIT ( $, .STERADIAN. ) SOLID_ANGLE_UNIT ( ) );
#149 = FACE_OUTER_BOUND ( 'NONE', #88, .T. ) ;
#150 = PRODUCT ( 'c561', 'c561', '', ( #101 ) ) ;
#151 = CALENDAR_DATE ( 2023, 12, 2 ) ;
#152 = APPROVAL_ROLE ( '' ) ;
#153 = EDGE_CURVE ( 'NONE', #51, #178, #223, .T. ) ;
#154 = ORIENTED_EDGE ( 'NONE', *, *, #237, .F. ) ;
#155 = CIRCLE ( 'NONE', #11, 3.000000000000000444 ) ;
#156 = CIRCLE ( 'NONE', #248, 1.500000000000000222 ) ;
#157 = ORIENTED_EDGE ( 'NONE', *, *, #40, .F. ) ;
#158 = PRODUCT_DEFINITION_FORMATION_WITH_SPECIFIED_SOURCE ( 'LIBOVOLNÝ', '', #150, .NOT_KNOWN. ) ;
#159 = APPROVAL ( #241, 'NEURÈENÝ' ) ;
#160 = PLANE ( 'NONE',  #36 ) ;
#161 = CARTESIAN_POINT ( 'NONE',  ( 0.000000000000000000, 0.000000000000000000, 0.000000000000000000 ) ) ;
#162 = ADVANCED_FACE ( 'NONE', ( #127, #203 ), #160, .T. ) ;
#163 = CARTESIAN_POINT ( 'NONE',  ( 0.000000000000000000, 0.000000000000000000, 3.000000000000000000 ) ) ;
#164 = CIRCLE ( 'NONE', #244, 1.500000000000000222 ) ;
#165 = CC_DESIGN_PERSON_AND_ORGANIZATION_ASSIGNMENT ( #41, #114, ( #158 ) ) ;
#166 = CYLINDRICAL_SURFACE ( 'NONE', #137, 1.500000000000000222 ) ;
#167 = CYLINDRICAL_SURFACE ( 'NONE', #70, 3.000000000000000444 ) ;
#168 = ORIENTED_EDGE ( 'NONE', *, *, #237, .T. ) ;
#169 = ADVANCED_FACE ( 'NONE', ( #142 ), #112, .T. ) ;
#170 = CC_DESIGN_PERSON_AND_ORGANIZATION_ASSIGNMENT ( #60, #133, ( #176 ) ) ;
#171 = APPROVAL_DATE_TIME ( #205, #20 ) ;
#172 = DIRECTION ( 'NONE',  ( -0.000000000000000000, -0.000000000000000000, -1.000000000000000000 ) ) ;
#173 = PERSON_AND_ORGANIZATION ( #44, #197 ) ;
#174 = CARTESIAN_POINT ( 'NONE',  ( 3.000000000000000444, 3.673940397442060361E-16, 3.000000000000000000 ) ) ;
#175 = PERSON_AND_ORGANIZATION ( #44, #197 ) ;
#176 = SECURITY_CLASSIFICATION ( '', '', #231 ) ;
#177 = APPROVAL_DATE_TIME ( #84, #12 ) ;
#178 = VERTEX_POINT ( 'NONE', #126 ) ;
#179 = EDGE_LOOP ( 'NONE', ( #154, #216 ) ) ;
#180 = COORDINATED_UNIVERSAL_TIME_OFFSET ( 1, 0, .AHEAD. ) ;
#181 =( LENGTH_UNIT ( ) NAMED_UNIT ( * ) SI_UNIT ( .MILLI., .METRE. ) );
#182 = CYLINDRICAL_SURFACE ( 'NONE', #27, 1.500000000000000222 ) ;
#183 = DIRECTION ( 'NONE',  ( 0.000000000000000000, 0.000000000000000000, 1.000000000000000000 ) ) ;
#184 = CARTESIAN_POINT ( 'NONE',  ( 1.500000000000000222, 1.836970198721029934E-16, 3.000000000000000000 ) ) ;
#185 = ADVANCED_FACE ( 'NONE', ( #146 ), #182, .T. ) ;
#186 = DIRECTION ( 'NONE',  ( 0.000000000000000000, 0.000000000000000000, 1.000000000000000000 ) ) ;
#187 = APPROVAL_STATUS ( 'not_yet_approved' ) ;
#188 = DIRECTION ( 'NONE',  ( 1.000000000000000000, 0.000000000000000000, -0.000000000000000000 ) ) ;
#189 = APPROVAL_STATUS ( 'not_yet_approved' ) ;
#190 = CARTESIAN_POINT ( 'NONE',  ( -1.500000000000000222, 0.000000000000000000, 125.0000000000000000 ) ) ;
#191 = DATE_AND_TIME ( #151, #35 ) ;
#192 = APPROVAL_PERSON_ORGANIZATION ( #6, #12, #80 ) ;
#193 = AXIS2_PLACEMENT_3D ( 'NONE', #246, #222, #225 ) ;
#194 = CC_DESIGN_APPROVAL ( #12, ( #141 ) ) ;
#195 = EDGE_CURVE ( 'NONE', #43, #138, #234, .T. ) ;
#196 = CLOSED_SHELL ( 'NONE', ( #185, #245, #169, #162, #113, #202, #7 ) ) ;
#197 = ORGANIZATION ( 'NEURÈENÝ', 'NEURÈENÝ', '' ) ;
#198 = CARTESIAN_POINT ( 'NONE',  ( 0.000000000000000000, 0.000000000000000000, 3.000000000000000000 ) ) ;
#199 = FACE_OUTER_BOUND ( 'NONE', #85, .T. ) ;
#200 = DIRECTION ( 'NONE',  ( -1.000000000000000000, 0.000000000000000000, 0.000000000000000000 ) ) ;
#201 = DIRECTION ( 'NONE',  ( 0.000000000000000000, 0.000000000000000000, 1.000000000000000000 ) ) ;
#202 = ADVANCED_FACE ( 'NONE', ( #199 ), #166, .T. ) ;
#203 = FACE_OUTER_BOUND ( 'NONE', #123, .T. ) ;
#204 = EDGE_LOOP ( 'NONE', ( #68, #82, #47, #29 ) ) ;
#205 = DATE_AND_TIME ( #255, #121 ) ;
#206 = DIRECTION ( 'NONE',  ( 1.000000000000000000, 0.000000000000000000, 0.000000000000000000 ) ) ;
#207 = EDGE_CURVE ( 'NONE', #25, #45, #164, .T. ) ;
#208 = COORDINATED_UNIVERSAL_TIME_OFFSET ( 1, 0, .AHEAD. ) ;
#209 = AXIS2_PLACEMENT_3D ( 'NONE', #56, #73, #143 ) ;
#210 = CARTESIAN_POINT ( 'NONE',  ( 3.000000000000000444, 3.673940397442060361E-16, 3.000000000000000000 ) ) ;
#211 = APPLICATION_PROTOCOL_DEFINITION ( 'international standard', 'config_control_design', 1994, #21 ) ;
#212 = MANIFOLD_SOLID_BREP ( 'Pøidat vysunutím3', #196 ) ;
#213 = CARTESIAN_POINT ( 'NONE',  ( 0.000000000000000000, 0.000000000000000000, 125.0000000000000000 ) ) ;
#214 = CC_DESIGN_PERSON_AND_ORGANIZATION_ASSIGNMENT ( #99, #254, ( #141 ) ) ;
#215 = ORIENTED_EDGE ( 'NONE', *, *, #40, .T. ) ;
#216 = ORIENTED_EDGE ( 'NONE', *, *, #153, .F. ) ;
#217 = APPROVAL_PERSON_ORGANIZATION ( #66, #159, #152 ) ;
#218 = CIRCLE ( 'NONE', #125, 3.000000000000000444 ) ;
#219 = APPROVAL_DATE_TIME ( #9, #159 ) ;
#220 = ADVANCED_BREP_SHAPE_REPRESENTATION ( 'c561', ( #212, #63 ), #42 ) ;
#221 = EDGE_CURVE ( 'NONE', #45, #25, #156, .T. ) ;
#222 = DIRECTION ( 'NONE',  ( -0.000000000000000000, -0.000000000000000000, -1.000000000000000000 ) ) ;
#223 = CIRCLE ( 'NONE', #116, 1.500000000000000222 ) ;
#224 = CARTESIAN_POINT ( 'NONE',  ( 0.000000000000000000, 0.000000000000000000, 0.000000000000000000 ) ) ;
#225 = DIRECTION ( 'NONE',  ( -1.000000000000000000, 0.000000000000000000, 0.000000000000000000 ) ) ;
#226 = LOCAL_TIME ( 13, 47, 41.00000000000000000, #102 ) ;
#227 = DIRECTION ( 'NONE',  ( -0.000000000000000000, -0.000000000000000000, -1.000000000000000000 ) ) ;
#228 = CARTESIAN_POINT ( 'NONE',  ( 0.000000000000000000, 0.000000000000000000, 0.000000000000000000 ) ) ;
#229 = CALENDAR_DATE ( 2023, 12, 2 ) ;
#230 = EDGE_LOOP ( 'NONE', ( #147, #111, #39, #65 ) ) ;
#231 = SECURITY_CLASSIFICATION_LEVEL ( 'unclassified' ) ;
#232 = ORIENTED_EDGE ( 'NONE', *, *, #136, .T. ) ;
#233 = CC_DESIGN_APPROVAL ( #20, ( #158 ) ) ;
#234 = CIRCLE ( 'NONE', #129, 3.000000000000000444 ) ;
#235 = CARTESIAN_POINT ( 'NONE',  ( 1.500000000000000222, 1.836970198721029934E-16, 125.0000000000000000 ) ) ;
#236 = PERSON_AND_ORGANIZATION_ROLE ( 'design_supplier' ) ;
#237 = EDGE_CURVE ( 'NONE', #178, #51, #89, .T. ) ;
#238 = APPROVAL_ROLE ( '' ) ;
#239 = EDGE_LOOP ( 'NONE', ( #31, #103 ) ) ;
#240 = AXIS2_PLACEMENT_3D ( 'NONE', #213, #96, #188 ) ;
#241 = APPROVAL_STATUS ( 'not_yet_approved' ) ;
#242 = ORIENTED_EDGE ( 'NONE', *, *, #30, .F. ) ;
#243 = VECTOR ( 'NONE', #134, 1000.000000000000000 ) ;
#244 = AXIS2_PLACEMENT_3D ( 'NONE', #128, #15, #77 ) ;
#245 = ADVANCED_FACE ( 'NONE', ( #95 ), #167, .T. ) ;
#246 = CARTESIAN_POINT ( 'NONE',  ( 0.000000000000000000, 0.000000000000000000, 3.000000000000000000 ) ) ;
#247 = DIRECTION ( 'NONE',  ( 1.000000000000000000, 0.000000000000000000, 0.000000000000000000 ) ) ;
#248 = AXIS2_PLACEMENT_3D ( 'NONE', #16, #75, #247 ) ;
#249 = CARTESIAN_POINT ( 'NONE',  ( 3.000000000000000444, 3.673940397442060361E-16, 0.000000000000000000 ) ) ;
#250 = CARTESIAN_POINT ( 'NONE',  ( 0.000000000000000000, 0.000000000000000000, 125.0000000000000000 ) ) ;
#251 = DIRECTION ( 'NONE',  ( -0.000000000000000000, -0.000000000000000000, -1.000000000000000000 ) ) ;
#252 = DIRECTION ( 'NONE',  ( -0.000000000000000000, -0.000000000000000000, -1.000000000000000000 ) ) ;
#253 = UNCERTAINTY_MEASURE_WITH_UNIT (LENGTH_MEASURE( 1.000000000000000082E-05 ), #181, 'distance_accuracy_value', 'NONE');
#254 = PERSON_AND_ORGANIZATION_ROLE ( 'creator' ) ;
#255 = CALENDAR_DATE ( 2023, 12, 2 ) ;
ENDSEC;
END-ISO-10303-21;
