ISO-10303-21;
HEADER;
FILE_DESCRIPTION (( 'STEP AP203' ),
    '1' );
FILE_NAME ('bd43.STEP',
    '2022-07-07T10:01:34',
    ( '' ),
    ( '' ),
    'SwSTEP 2.0',
    'SolidWorks 2019',
    '' );
FILE_SCHEMA (( 'CONFIG_CONTROL_DESIGN' ));
ENDSEC;

DATA;
#1 = CALENDAR_DATE ( 2022, 7, 7 ) ;
#2 = AXIS2_PLACEMENT_3D ( 'NONE', #53, #291, #239 ) ;
#3 = EDGE_CURVE ( 'NONE', #247, #121, #229, .T. ) ;
#4 = CIRCLE ( 'NONE', #180, 0.1999999999999996503 ) ;
#5 = SHAPE_DEFINITION_REPRESENTATION ( #85, #13 ) ;
#6 = ADVANCED_FACE ( 'NONE', ( #99 ), #257, .F. ) ;
#7 = DATE_AND_TIME ( #139, #278 ) ;
#8 = CARTESIAN_POINT ( 'NONE',  ( -4.099999999999999645, 0.000000000000000000, 130.0000000000000000 ) ) ;
#9 = ORIENTED_EDGE ( 'NONE', *, *, #86, .T. ) ;
#10 = CARTESIAN_POINT ( 'NONE',  ( 7.000000000000000000, 8.572527594031473190E-16, 0.000000000000000000 ) ) ;
#11 = CARTESIAN_POINT ( 'NONE',  ( 0.000000000000000000, 0.000000000000000000, 5.199999999999996625 ) ) ;
#12 = EDGE_CURVE ( 'NONE', #121, #215, #174, .T. ) ;
#13 = ADVANCED_BREP_SHAPE_REPRESENTATION ( 'bd43', ( #233, #184 ), #102 ) ;
#14 = DIRECTION ( 'NONE',  ( 0.000000000000000000, 0.000000000000000000, 1.000000000000000000 ) ) ;
#15 = VERTEX_POINT ( 'NONE', #100 ) ;
#16 = DIRECTION ( 'NONE',  ( -0.000000000000000000, -0.000000000000000000, -1.000000000000000000 ) ) ;
#17 = FACE_OUTER_BOUND ( 'NONE', #29, .T. ) ;
#18 = DIRECTION ( 'NONE',  ( -1.000000000000000000, 0.000000000000000000, 0.000000000000000000 ) ) ;
#19 = DIRECTION ( 'NONE',  ( -0.000000000000000000, -0.000000000000000000, -1.000000000000000000 ) ) ;
#20 = CARTESIAN_POINT ( 'NONE',  ( 7.000000000000000000, 8.572527594031473190E-16, 5.000000000000000000 ) ) ;
#21 = AXIS2_PLACEMENT_3D ( 'NONE', #11, #27, #147 ) ;
#22 = DIRECTION ( 'NONE',  ( 0.000000000000000000, 0.000000000000000000, 1.000000000000000000 ) ) ;
#23 = COORDINATED_UNIVERSAL_TIME_OFFSET ( 1, 0, .AHEAD. ) ;
#24 = APPLICATION_PROTOCOL_DEFINITION ( 'international standard', 'config_control_design', 1994, #242 ) ;
#25 = SECURITY_CLASSIFICATION_LEVEL ( 'unclassified' ) ;
#26 = PERSON_AND_ORGANIZATION ( #246, #225 ) ;
#27 = DIRECTION ( 'NONE',  ( 0.000000000000000000, 0.000000000000000000, 1.000000000000000000 ) ) ;
#28 = DIRECTION ( 'NONE',  ( 1.000000000000000000, 0.000000000000000000, -0.000000000000000000 ) ) ;
#29 = EDGE_LOOP ( 'NONE', ( #217, #78, #48, #93 ) ) ;
#30 = EDGE_CURVE ( 'NONE', #54, #215, #155, .T. ) ;
#31 = VERTEX_POINT ( 'NONE', #98 ) ;
#32 = ORIENTED_EDGE ( 'NONE', *, *, #135, .T. ) ;
#33 = ORIENTED_EDGE ( 'NONE', *, *, #112, .F. ) ;
#34 = ORIENTED_EDGE ( 'NONE', *, *, #30, .T. ) ;
#35 = ORIENTED_EDGE ( 'NONE', *, *, #104, .F. ) ;
#36 = CC_DESIGN_APPROVAL ( #117, ( #113 ) ) ;
#37 = CC_DESIGN_DATE_AND_TIME_ASSIGNMENT ( #142, #259, ( #226 ) ) ;
#38 = FACE_OUTER_BOUND ( 'NONE', #124, .T. ) ;
#39 = CARTESIAN_POINT ( 'NONE',  ( -7.000000000000000000, 0.000000000000000000, 0.000000000000000000 ) ) ;
#40 = DIRECTION ( 'NONE',  ( -1.000000000000000000, 0.000000000000000000, 0.000000000000000000 ) ) ;
#41 = DIRECTION ( 'NONE',  ( 1.000000000000000000, 0.000000000000000000, -0.000000000000000000 ) ) ;
#42 = VECTOR ( 'NONE', #16, 1000.000000000000000 ) ;
#43 = APPLICATION_PROTOCOL_DEFINITION ( 'international standard', 'config_control_design', 1994, #223 ) ;
#44 = CIRCLE ( 'NONE', #214, 4.299999999999998934 ) ;
#45 = PRODUCT_RELATED_PRODUCT_CATEGORY ( 'detail', '', ( #302 ) ) ;
#46 = CARTESIAN_POINT ( 'NONE',  ( 0.000000000000000000, 0.000000000000000000, 0.000000000000000000 ) ) ;
#47 = EDGE_CURVE ( 'NONE', #272, #95, #207, .T. ) ;
#48 = ORIENTED_EDGE ( 'NONE', *, *, #135, .F. ) ;
#49 = ORIENTED_EDGE ( 'NONE', *, *, #140, .T. ) ;
#50 = CC_DESIGN_DATE_AND_TIME_ASSIGNMENT ( #66, #110, ( #185 ) ) ;
#51 = APPROVAL_PERSON_ORGANIZATION ( #166, #197, #282 ) ;
#52 = CARTESIAN_POINT ( 'NONE',  ( -7.000000000000000000, 0.000000000000000000, 5.000000000000000000 ) ) ;
#53 = CARTESIAN_POINT ( 'NONE',  ( 0.000000000000000000, 0.000000000000000000, 5.199999999999996625 ) ) ;
#54 = VERTEX_POINT ( 'NONE', #118 ) ;
#55 = CARTESIAN_POINT ( 'NONE',  ( 7.000000000000000000, 8.572527594031473190E-16, 5.000000000000000000 ) ) ;
#56 = ADVANCED_FACE ( 'NONE', ( #213 ), #153, .T. ) ;
#57 = CARTESIAN_POINT ( 'NONE',  ( 0.000000000000000000, 0.000000000000000000, 130.0000000000000000 ) ) ;
#58 = DIRECTION ( 'NONE',  ( 0.000000000000000000, 0.000000000000000000, 1.000000000000000000 ) ) ;
#59 = CARTESIAN_POINT ( 'NONE',  ( 0.000000000000000000, 0.000000000000000000, 5.000000000000000000 ) ) ;
#60 = CIRCLE ( 'NONE', #122, 7.000000000000000000 ) ;
#61 = DIRECTION ( 'NONE',  ( 0.000000000000000000, 0.000000000000000000, 1.000000000000000000 ) ) ;
#62 = APPROVAL ( #284, 'NEURÈENÝ' ) ;
#63 = COORDINATED_UNIVERSAL_TIME_OFFSET ( 1, 0, .AHEAD. ) ;
#64 = LOCAL_TIME ( 12, 1, 34.00000000000000000, #23 ) ;
#65 = PERSON_AND_ORGANIZATION_ROLE ( 'creator' ) ;
#66 = DATE_AND_TIME ( #144, #296 ) ;
#67 = CALENDAR_DATE ( 2022, 7, 7 ) ;
#68 = CIRCLE ( 'NONE', #148, 7.000000000000000000 ) ;
#69 = FACE_OUTER_BOUND ( 'NONE', #293, .T. ) ;
#70 = EDGE_LOOP ( 'NONE', ( #221, #190, #286, #35 ) ) ;
#71 = CARTESIAN_POINT ( 'NONE',  ( 4.299999999999998934, 0.000000000000000000, 5.199999999999996625 ) ) ;
#72 = EDGE_LOOP ( 'NONE', ( #297, #298, #76, #168 ) ) ;
#73 = AXIS2_PLACEMENT_3D ( 'NONE', #181, #22, #163 ) ;
#74 = CARTESIAN_POINT ( 'NONE',  ( 0.000000000000000000, 0.000000000000000000, 0.000000000000000000 ) ) ;
#75 = EDGE_LOOP ( 'NONE', ( #97, #127, #91, #149 ) ) ;
#76 = ORIENTED_EDGE ( 'NONE', *, *, #12, .T. ) ;
#77 = ADVANCED_FACE ( 'NONE', ( #69 ), #196, .F. ) ;
#78 = ORIENTED_EDGE ( 'NONE', *, *, #158, .T. ) ;
#79 = AXIS2_PLACEMENT_3D ( 'NONE', #103, #201, #301 ) ;
#80 = DIRECTION ( 'NONE',  ( 1.000000000000000000, 0.000000000000000000, 0.000000000000000000 ) ) ;
#81 = CYLINDRICAL_SURFACE ( 'NONE', #273, 4.099999999999999645 ) ;
#82 =( NAMED_UNIT ( * ) PLANE_ANGLE_UNIT ( ) SI_UNIT ( $, .RADIAN. ) );
#83 = VECTOR ( 'NONE', #245, 1000.000000000000000 ) ;
#84 = DIRECTION ( 'NONE',  ( 0.000000000000000000, 0.000000000000000000, 1.000000000000000000 ) ) ;
#85 = PRODUCT_DEFINITION_SHAPE ( 'NONE', 'NONE',  #226 ) ;
#86 = EDGE_CURVE ( 'NONE', #247, #54, #96, .T. ) ;
#87 = DIRECTION ( 'NONE',  ( -1.000000000000000000, 0.000000000000000000, 0.000000000000000000 ) ) ;
#88 = PERSON_AND_ORGANIZATION_ROLE ( 'creator' ) ;
#89 = PERSON_AND_ORGANIZATION_ROLE ( 'design_owner' ) ;
#90 = PERSON_AND_ORGANIZATION ( #246, #225 ) ;
#91 = ORIENTED_EDGE ( 'NONE', *, *, #107, .T. ) ;
#92 = CIRCLE ( 'NONE', #125, 7.000000000000000000 ) ;
#93 = ORIENTED_EDGE ( 'NONE', *, *, #107, .F. ) ;
#94 = CARTESIAN_POINT ( 'NONE',  ( 0.000000000000000000, 0.000000000000000000, 0.000000000000000000 ) ) ;
#95 = VERTEX_POINT ( 'NONE', #10 ) ;
#96 = LINE ( 'NONE', #119, #83 ) ;
#97 = ORIENTED_EDGE ( 'NONE', *, *, #158, .F. ) ;
#98 = CARTESIAN_POINT ( 'NONE',  ( -7.000000000000000000, 0.000000000000000000, 5.000000000000000000 ) ) ;
#99 = FACE_OUTER_BOUND ( 'NONE', #75, .T. ) ;
#100 = CARTESIAN_POINT ( 'NONE',  ( -4.299999999999998934, 5.265981236333617484E-16, 4.999999999999998224 ) ) ;
#101 = CARTESIAN_POINT ( 'NONE',  ( 4.099999999999999645, 5.021051876504147385E-16, 130.0000000000000000 ) ) ;
#102 =( GEOMETRIC_REPRESENTATION_CONTEXT ( 3 ) GLOBAL_UNCERTAINTY_ASSIGNED_CONTEXT ( ( #212 ) ) GLOBAL_UNIT_ASSIGNED_CONTEXT ( ( #303, #82, #234 ) ) REPRESENTATION_CONTEXT ( 'NONE', 'WORKASPACE' ) );
#103 = CARTESIAN_POINT ( 'NONE',  ( 0.000000000000000000, 0.000000000000000000, 130.0000000000000000 ) ) ;
#104 = EDGE_CURVE ( 'NONE', #31, #272, #191, .T. ) ;
#105 = CARTESIAN_POINT ( 'NONE',  ( 0.000000000000000000, 0.000000000000000000, 5.000000000000000000 ) ) ;
#106 = DIRECTION ( 'NONE',  ( -1.000000000000000000, 1.224646799147353454E-16, 0.000000000000000000 ) ) ;
#107 = EDGE_CURVE ( 'NONE', #54, #195, #161, .T. ) ;
#108 = DIRECTION ( 'NONE',  ( -0.000000000000000000, -0.000000000000000000, -1.000000000000000000 ) ) ;
#109 = APPROVAL_STATUS ( 'not_yet_approved' ) ;
#110 = DATE_TIME_ROLE ( 'classification_date' ) ;
#111 = APPROVAL_STATUS ( 'not_yet_approved' ) ;
#112 = EDGE_CURVE ( 'NONE', #95, #272, #60, .T. ) ;
#113 = PRODUCT_DEFINITION_FORMATION_WITH_SPECIFIED_SOURCE ( 'LIBOVOLNÝ', '', #302, .NOT_KNOWN. ) ;
#114 = COORDINATED_UNIVERSAL_TIME_OFFSET ( 1, 0, .AHEAD. ) ;
#115 = ORIENTED_EDGE ( 'NONE', *, *, #187, .T. ) ;
#116 = COORDINATED_UNIVERSAL_TIME_OFFSET ( 1, 0, .AHEAD. ) ;
#117 = APPROVAL ( #109, 'NEURÈENÝ' ) ;
#118 = CARTESIAN_POINT ( 'NONE',  ( 4.099999999999999645, 5.021051876504147385E-16, 5.199999999999996625 ) ) ;
#119 = CARTESIAN_POINT ( 'NONE',  ( 4.099999999999999645, 5.021051876504147385E-16, 130.0000000000000000 ) ) ;
#120 = DIRECTION ( 'NONE',  ( 0.000000000000000000, 0.000000000000000000, -1.000000000000000000 ) ) ;
#121 = VERTEX_POINT ( 'NONE', #271 ) ;
#122 = AXIS2_PLACEMENT_3D ( 'NONE', #74, #218, #270 ) ;
#123 = VERTEX_POINT ( 'NONE', #55 ) ;
#124 = EDGE_LOOP ( 'NONE', ( #188, #146, #266, #269 ) ) ;
#125 = AXIS2_PLACEMENT_3D ( 'NONE', #205, #58, #253 ) ;
#126 = APPROVAL_PERSON_ORGANIZATION ( #90, #62, #186 ) ;
#127 = ORIENTED_EDGE ( 'NONE', *, *, #30, .F. ) ;
#128 = DIRECTION ( 'NONE',  ( 0.000000000000000000, 0.000000000000000000, 1.000000000000000000 ) ) ;
#129 = CARTESIAN_POINT ( 'NONE',  ( 0.000000000000000000, 0.000000000000000000, 5.000000000000000000 ) ) ;
#130 = CLOSED_SHELL ( 'NONE', ( #216, #230, #249, #255, #236, #77, #56, #300, #6 ) ) ;
#131 = AXIS2_PLACEMENT_3D ( 'NONE', #57, #128, #80 ) ;
#132 = CYLINDRICAL_SURFACE ( 'NONE', #252, 7.000000000000000000 ) ;
#133 = LINE ( 'NONE', #20, #137 ) ;
#134 = FACE_OUTER_BOUND ( 'NONE', #70, .T. ) ;
#135 = EDGE_CURVE ( 'NONE', #195, #15, #204, .T. ) ;
#136 = DIRECTION ( 'NONE',  ( 1.000000000000000000, 0.000000000000000000, 0.000000000000000000 ) ) ;
#137 = VECTOR ( 'NONE', #254, 1000.000000000000000 ) ;
#138 = LOCAL_TIME ( 12, 1, 34.00000000000000000, #165 ) ;
#139 = CALENDAR_DATE ( 2022, 7, 7 ) ;
#140 = EDGE_CURVE ( 'NONE', #121, #247, #268, .T. ) ;
#141 = PERSON_AND_ORGANIZATION ( #246, #225 ) ;
#142 = DATE_AND_TIME ( #1, #64 ) ;
#143 = APPROVAL_PERSON_ORGANIZATION ( #232, #117, #206 ) ;
#144 = CALENDAR_DATE ( 2022, 7, 7 ) ;
#145 = CC_DESIGN_PERSON_AND_ORGANIZATION_ASSIGNMENT ( #262, #65, ( #226 ) ) ;
#146 = ORIENTED_EDGE ( 'NONE', *, *, #187, .F. ) ;
#147 = DIRECTION ( 'NONE',  ( 1.000000000000000000, 0.000000000000000000, 0.000000000000000000 ) ) ;
#148 = AXIS2_PLACEMENT_3D ( 'NONE', #59, #222, #250 ) ;
#149 = ORIENTED_EDGE ( 'NONE', *, *, #261, .F. ) ;
#150 = CC_DESIGN_APPROVAL ( #62, ( #185 ) ) ;
#151 = DIRECTION ( 'NONE',  ( 0.000000000000000000, -1.000000000000000000, 0.000000000000000000 ) ) ;
#152 = CC_DESIGN_PERSON_AND_ORGANIZATION_ASSIGNMENT ( #281, #283, ( #185 ) ) ;
#153 = CYLINDRICAL_SURFACE ( 'NONE', #240, 4.099999999999999645 ) ;
#154 = EDGE_LOOP ( 'NONE', ( #198, #9, #34, #172 ) ) ;
#155 = CIRCLE ( 'NONE', #21, 4.099999999999999645 ) ;
#156 = CARTESIAN_POINT ( 'NONE',  ( 0.000000000000000000, 0.000000000000000000, 5.000000000000000000 ) ) ;
#157 = CARTESIAN_POINT ( 'NONE',  ( 0.000000000000000000, 0.000000000000000000, 5.000000000000000000 ) ) ;
#158 = EDGE_CURVE ( 'NONE', #215, #15, #4, .T. ) ;
#159 = FACE_BOUND ( 'NONE', #244, .T. ) ;
#160 = PLANE ( 'NONE',  #79 ) ;
#161 = CIRCLE ( 'NONE', #263, 0.1999999999999996503 ) ;
#162 = CARTESIAN_POINT ( 'NONE',  ( 0.000000000000000000, 0.000000000000000000, 5.000000000000000000 ) ) ;
#163 = DIRECTION ( 'NONE',  ( 1.000000000000000000, 0.000000000000000000, 0.000000000000000000 ) ) ;
#164 = CALENDAR_DATE ( 2022, 7, 7 ) ;
#165 = COORDINATED_UNIVERSAL_TIME_OFFSET ( 1, 0, .AHEAD. ) ;
#166 = PERSON_AND_ORGANIZATION ( #246, #225 ) ;
#167 = DESIGN_CONTEXT ( 'detailed design', #242, 'design' ) ;
#168 = ORIENTED_EDGE ( 'NONE', *, *, #192, .T. ) ;
#169 = DIRECTION ( 'NONE',  ( 0.000000000000000000, 0.000000000000000000, 1.000000000000000000 ) ) ;
#170 = ORIENTED_EDGE ( 'NONE', *, *, #176, .T. ) ;
#171 = DIRECTION ( 'NONE',  ( 1.000000000000000000, 0.000000000000000000, 0.000000000000000000 ) ) ;
#172 = ORIENTED_EDGE ( 'NONE', *, *, #12, .F. ) ;
#173 = CARTESIAN_POINT ( 'NONE',  ( 0.000000000000000000, 0.000000000000000000, 130.0000000000000000 ) ) ;
#174 = LINE ( 'NONE', #8, #42 ) ;
#175 = CARTESIAN_POINT ( 'NONE',  ( 0.000000000000000000, 0.000000000000000000, 130.0000000000000000 ) ) ;
#176 = EDGE_CURVE ( 'NONE', #123, #31, #68, .T. ) ;
#177 = CC_DESIGN_SECURITY_CLASSIFICATION ( #185, ( #113 ) ) ;
#178 = CARTESIAN_POINT ( 'NONE',  ( -4.299999999999998934, 5.265981236333617484E-16, 5.199999999999996625 ) ) ;
#179 = DIRECTION ( 'NONE',  ( 1.000000000000000000, 0.000000000000000000, 0.000000000000000000 ) ) ;
#180 = AXIS2_PLACEMENT_3D ( 'NONE', #178, #228, #106 ) ;
#181 = CARTESIAN_POINT ( 'NONE',  ( 0.000000000000000000, 0.000000000000000000, 5.199999999999996625 ) ) ;
#182 = CARTESIAN_POINT ( 'NONE',  ( 0.000000000000000000, 0.000000000000000000, 130.0000000000000000 ) ) ;
#183 = PERSON_AND_ORGANIZATION ( #246, #225 ) ;
#184 = AXIS2_PLACEMENT_3D ( 'NONE', #46, #264, #136 ) ;
#185 = SECURITY_CLASSIFICATION ( '', '', #25 ) ;
#186 = APPROVAL_ROLE ( '' ) ;
#187 = EDGE_CURVE ( 'NONE', #31, #123, #92, .T. ) ;
#188 = ORIENTED_EDGE ( 'NONE', *, *, #241, .F. ) ;
#189 = EDGE_LOOP ( 'NONE', ( #115, #170 ) ) ;
#190 = ORIENTED_EDGE ( 'NONE', *, *, #241, .T. ) ;
#191 = LINE ( 'NONE', #52, #276 ) ;
#192 = EDGE_CURVE ( 'NONE', #215, #54, #258, .T. ) ;
#193 = EDGE_LOOP ( 'NONE', ( #49, #238 ) ) ;
#194 = DIRECTION ( 'NONE',  ( -0.000000000000000000, -0.000000000000000000, -1.000000000000000000 ) ) ;
#195 = VERTEX_POINT ( 'NONE', #299 ) ;
#196 = PLANE ( 'NONE',  #292 ) ;
#197 = APPROVAL ( #111, 'NEURÈENÝ' ) ;
#198 = ORIENTED_EDGE ( 'NONE', *, *, #3, .F. ) ;
#199 = DIRECTION ( 'NONE',  ( -0.000000000000000000, -0.000000000000000000, -1.000000000000000000 ) ) ;
#200 = AXIS2_PLACEMENT_3D ( 'NONE', #304, #84, #179 ) ;
#201 = DIRECTION ( 'NONE',  ( 0.000000000000000000, 0.000000000000000000, 1.000000000000000000 ) ) ;
#202 = DIRECTION ( 'NONE',  ( -0.000000000000000000, -0.000000000000000000, -1.000000000000000000 ) ) ;
#203 = CC_DESIGN_PERSON_AND_ORGANIZATION_ASSIGNMENT ( #26, #209, ( #113 ) ) ;
#204 = CIRCLE ( 'NONE', #295, 4.299999999999998934 ) ;
#205 = CARTESIAN_POINT ( 'NONE',  ( 0.000000000000000000, 0.000000000000000000, 5.000000000000000000 ) ) ;
#206 = APPROVAL_ROLE ( '' ) ;
#207 = CIRCLE ( 'NONE', #211, 7.000000000000000000 ) ;
#208 = APPROVAL_DATE_TIME ( #260, #62 ) ;
#209 = PERSON_AND_ORGANIZATION_ROLE ( 'design_supplier' ) ;
#210 = CC_DESIGN_PERSON_AND_ORGANIZATION_ASSIGNMENT ( #183, #89, ( #302 ) ) ;
#211 = AXIS2_PLACEMENT_3D ( 'NONE', #94, #14, #171 ) ;
#212 = UNCERTAINTY_MEASURE_WITH_UNIT (LENGTH_MEASURE( 1.000000000000000082E-05 ), #303, 'distance_accuracy_value', 'NONE');
#213 = FACE_OUTER_BOUND ( 'NONE', #72, .T. ) ;
#214 = AXIS2_PLACEMENT_3D ( 'NONE', #129, #202, #251 ) ;
#215 = VERTEX_POINT ( 'NONE', #277 ) ;
#216 = ADVANCED_FACE ( 'NONE', ( #17 ), #305, .F. ) ;
#217 = ORIENTED_EDGE ( 'NONE', *, *, #192, .F. ) ;
#218 = DIRECTION ( 'NONE',  ( 0.000000000000000000, 0.000000000000000000, 1.000000000000000000 ) ) ;
#219 = DIRECTION ( 'NONE',  ( 1.000000000000000000, 0.000000000000000000, 0.000000000000000000 ) ) ;
#220 = ORIENTED_EDGE ( 'NONE', *, *, #47, .F. ) ;
#221 = ORIENTED_EDGE ( 'NONE', *, *, #176, .F. ) ;
#222 = DIRECTION ( 'NONE',  ( 0.000000000000000000, 0.000000000000000000, 1.000000000000000000 ) ) ;
#223 = APPLICATION_CONTEXT ( 'configuration controlled 3d designs of mechanical parts and assemblies' ) ;
#224 = FACE_OUTER_BOUND ( 'NONE', #193, .T. ) ;
#225 = ORGANIZATION ( 'NEURÈENÝ', 'NEURÈENÝ', '' ) ;
#226 = PRODUCT_DEFINITION ( 'NEZNÁMÝ', '', #113, #167 ) ;
#227 = FACE_OUTER_BOUND ( 'NONE', #154, .T. ) ;
#228 = DIRECTION ( 'NONE',  ( 1.224646799147353207E-16, 1.000000000000000000, -0.000000000000000000 ) ) ;
#229 = CIRCLE ( 'NONE', #285, 4.099999999999999645 ) ;
#230 = ADVANCED_FACE ( 'NONE', ( #227 ), #81, .T. ) ;
#231 = LOCAL_TIME ( 12, 1, 34.00000000000000000, #116 ) ;
#232 = PERSON_AND_ORGANIZATION ( #246, #225 ) ;
#233 = MANIFOLD_SOLID_BREP ( 'Zaoblit1', #130 ) ;
#234 =( NAMED_UNIT ( * ) SI_UNIT ( $, .STERADIAN. ) SOLID_ANGLE_UNIT ( ) );
#235 = APPROVAL_DATE_TIME ( #256, #197 ) ;
#236 = ADVANCED_FACE ( 'NONE', ( #159, #279 ), #306, .T. ) ;
#237 = CC_DESIGN_APPROVAL ( #197, ( #226 ) ) ;
#238 = ORIENTED_EDGE ( 'NONE', *, *, #3, .T. ) ;
#239 = DIRECTION ( 'NONE',  ( 1.000000000000000000, 0.000000000000000000, 0.000000000000000000 ) ) ;
#240 = AXIS2_PLACEMENT_3D ( 'NONE', #173, #289, #294 ) ;
#241 = EDGE_CURVE ( 'NONE', #123, #95, #133, .T. ) ;
#242 = APPLICATION_CONTEXT ( 'configuration controlled 3d designs of mechanical parts and assemblies' ) ;
#243 = CARTESIAN_POINT ( 'NONE',  ( 0.000000000000000000, 0.000000000000000000, 0.000000000000000000 ) ) ;
#244 = EDGE_LOOP ( 'NONE', ( #32, #290 ) ) ;
#245 = DIRECTION ( 'NONE',  ( -0.000000000000000000, -0.000000000000000000, -1.000000000000000000 ) ) ;
#246 = PERSON ( 'NEURÈENÝ', 'NEURÈENÝ', 'NEURÈENÝ', ('NEURÈENÝ'), ('NEURÈENÝ'), ('NEURÈENÝ') ) ;
#247 = VERTEX_POINT ( 'NONE', #101 ) ;
#248 = DIRECTION ( 'NONE',  ( -0.000000000000000000, -0.000000000000000000, -1.000000000000000000 ) ) ;
#249 = ADVANCED_FACE ( 'NONE', ( #134 ), #275, .T. ) ;
#250 = DIRECTION ( 'NONE',  ( 1.000000000000000000, 0.000000000000000000, 0.000000000000000000 ) ) ;
#251 = DIRECTION ( 'NONE',  ( 1.000000000000000000, 0.000000000000000000, 0.000000000000000000 ) ) ;
#252 = AXIS2_PLACEMENT_3D ( 'NONE', #105, #199, #87 ) ;
#253 = DIRECTION ( 'NONE',  ( 1.000000000000000000, 0.000000000000000000, 0.000000000000000000 ) ) ;
#254 = DIRECTION ( 'NONE',  ( -0.000000000000000000, -0.000000000000000000, -1.000000000000000000 ) ) ;
#255 = ADVANCED_FACE ( 'NONE', ( #38 ), #132, .T. ) ;
#256 = DATE_AND_TIME ( #164, #231 ) ;
#257 = TOROIDAL_SURFACE ( 'NONE', #2, 4.299999999999998934, 0.2000000000000000111 ) ;
#258 = CIRCLE ( 'NONE', #73, 4.099999999999999645 ) ;
#259 = DATE_TIME_ROLE ( 'creation_date' ) ;
#260 = DATE_AND_TIME ( #67, #138 ) ;
#261 = EDGE_CURVE ( 'NONE', #15, #195, #44, .T. ) ;
#262 = PERSON_AND_ORGANIZATION ( #246, #225 ) ;
#263 = AXIS2_PLACEMENT_3D ( 'NONE', #71, #151, #120 ) ;
#264 = DIRECTION ( 'NONE',  ( 0.000000000000000000, 0.000000000000000000, 1.000000000000000000 ) ) ;
#265 = AXIS2_PLACEMENT_3D ( 'NONE', #162, #61, #41 ) ;
#266 = ORIENTED_EDGE ( 'NONE', *, *, #104, .T. ) ;
#267 = DIRECTION ( 'NONE',  ( 0.000000000000000000, 0.000000000000000000, 1.000000000000000000 ) ) ;
#268 = CIRCLE ( 'NONE', #131, 4.099999999999999645 ) ;
#269 = ORIENTED_EDGE ( 'NONE', *, *, #47, .T. ) ;
#270 = DIRECTION ( 'NONE',  ( 1.000000000000000000, 0.000000000000000000, 0.000000000000000000 ) ) ;
#271 = CARTESIAN_POINT ( 'NONE',  ( -4.099999999999999645, 0.000000000000000000, 130.0000000000000000 ) ) ;
#272 = VERTEX_POINT ( 'NONE', #39 ) ;
#273 = AXIS2_PLACEMENT_3D ( 'NONE', #182, #19, #40 ) ;
#274 = DIRECTION ( 'NONE',  ( 1.000000000000000000, 0.000000000000000000, 0.000000000000000000 ) ) ;
#275 = CYLINDRICAL_SURFACE ( 'NONE', #288, 7.000000000000000000 ) ;
#276 = VECTOR ( 'NONE', #194, 1000.000000000000000 ) ;
#277 = CARTESIAN_POINT ( 'NONE',  ( -4.099999999999999645, 0.000000000000000000, 5.199999999999996625 ) ) ;
#278 = LOCAL_TIME ( 12, 1, 34.00000000000000000, #114 ) ;
#279 = FACE_OUTER_BOUND ( 'NONE', #189, .T. ) ;
#280 = MECHANICAL_CONTEXT ( 'NONE', #223, 'mechanical' ) ;
#281 = PERSON_AND_ORGANIZATION ( #246, #225 ) ;
#282 = APPROVAL_ROLE ( '' ) ;
#283 = PERSON_AND_ORGANIZATION_ROLE ( 'classification_officer' ) ;
#284 = APPROVAL_STATUS ( 'not_yet_approved' ) ;
#285 = AXIS2_PLACEMENT_3D ( 'NONE', #175, #169, #219 ) ;
#286 = ORIENTED_EDGE ( 'NONE', *, *, #112, .T. ) ;
#287 = CC_DESIGN_PERSON_AND_ORGANIZATION_ASSIGNMENT ( #141, #88, ( #113 ) ) ;
#288 = AXIS2_PLACEMENT_3D ( 'NONE', #157, #108, #18 ) ;
#289 = DIRECTION ( 'NONE',  ( -0.000000000000000000, -0.000000000000000000, -1.000000000000000000 ) ) ;
#290 = ORIENTED_EDGE ( 'NONE', *, *, #261, .T. ) ;
#291 = DIRECTION ( 'NONE',  ( 0.000000000000000000, 0.000000000000000000, 1.000000000000000000 ) ) ;
#292 = AXIS2_PLACEMENT_3D ( 'NONE', #243, #267, #28 ) ;
#293 = EDGE_LOOP ( 'NONE', ( #220, #33 ) ) ;
#294 = DIRECTION ( 'NONE',  ( -1.000000000000000000, 0.000000000000000000, 0.000000000000000000 ) ) ;
#295 = AXIS2_PLACEMENT_3D ( 'NONE', #156, #248, #274 ) ;
#296 = LOCAL_TIME ( 12, 1, 34.00000000000000000, #63 ) ;
#297 = ORIENTED_EDGE ( 'NONE', *, *, #86, .F. ) ;
#298 = ORIENTED_EDGE ( 'NONE', *, *, #140, .F. ) ;
#299 = CARTESIAN_POINT ( 'NONE',  ( 4.299999999999998934, 0.000000000000000000, 4.999999999999998224 ) ) ;
#300 = ADVANCED_FACE ( 'NONE', ( #224 ), #160, .T. ) ;
#301 = DIRECTION ( 'NONE',  ( 1.000000000000000000, 0.000000000000000000, -0.000000000000000000 ) ) ;
#302 = PRODUCT ( 'bd43', 'bd43', '', ( #280 ) ) ;
#303 =( LENGTH_UNIT ( ) NAMED_UNIT ( * ) SI_UNIT ( .MILLI., .METRE. ) );
#304 = CARTESIAN_POINT ( 'NONE',  ( 0.000000000000000000, 0.000000000000000000, 5.199999999999996625 ) ) ;
#305 = TOROIDAL_SURFACE ( 'NONE', #200, 4.299999999999998934, 0.2000000000000000111 ) ;
#306 = PLANE ( 'NONE',  #265 ) ;
#307 = APPROVAL_DATE_TIME ( #7, #117 ) ;
ENDSEC;
END-ISO-10303-21;
