ISO-10303-21;
HEADER;
FILE_DESCRIPTION (( 'STEP AP203' ),
    '1' );
FILE_NAME ('7551.STEP',
    '2022-07-07T10:15:44',
    ( '' ),
    ( '' ),
    'SwSTEP 2.0',
    'SolidWorks 2019',
    '' );
FILE_SCHEMA (( 'CONFIG_CONTROL_DESIGN' ));
ENDSEC;

DATA;
#1 = ORIENTED_EDGE ( 'NONE', *, *, #221, .F. ) ;
#2 = TOROIDAL_SURFACE ( 'NONE', #150, 2.949999999999999734, 0.2000000000000000111 ) ;
#3 = DIRECTION ( 'NONE',  ( 0.000000000000000000, 0.000000000000000000, 1.000000000000000000 ) ) ;
#4 = ADVANCED_FACE ( 'NONE', ( #288 ), #294, .F. ) ;
#5 = DIRECTION ( 'NONE',  ( 1.000000000000000000, 0.000000000000000000, 0.000000000000000000 ) ) ;
#6 = DIRECTION ( 'NONE',  ( -0.000000000000000000, -0.000000000000000000, -1.000000000000000000 ) ) ;
#7 =( NAMED_UNIT ( * ) PLANE_ANGLE_UNIT ( ) SI_UNIT ( $, .RADIAN. ) );
#8 = EDGE_CURVE ( 'NONE', #19, #42, #186, .T. ) ;
#9 = APPROVAL_STATUS ( 'not_yet_approved' ) ;
#10 = PERSON_AND_ORGANIZATION_ROLE ( 'creator' ) ;
#11 = PERSON_AND_ORGANIZATION ( #163, #256 ) ;
#12 = CIRCLE ( 'NONE', #299, 5.000000000000000000 ) ;
#13 = CC_DESIGN_PERSON_AND_ORGANIZATION_ASSIGNMENT ( #36, #10, ( #196 ) ) ;
#14 = ORIENTED_EDGE ( 'NONE', *, *, #54, .T. ) ;
#15 = ORIENTED_EDGE ( 'NONE', *, *, #130, .T. ) ;
#16 = ORIENTED_EDGE ( 'NONE', *, *, #291, .F. ) ;
#17 = VERTEX_POINT ( 'NONE', #306 ) ;
#18 = CARTESIAN_POINT ( 'NONE',  ( -2.750000000000000000, 0.000000000000000000, 3.200000000000008171 ) ) ;
#19 = VERTEX_POINT ( 'NONE', #236 ) ;
#20 = DIRECTION ( 'NONE',  ( -0.000000000000000000, -0.000000000000000000, -1.000000000000000000 ) ) ;
#21 = DIRECTION ( 'NONE',  ( -0.000000000000000000, -0.000000000000000000, -1.000000000000000000 ) ) ;
#22 = AXIS2_PLACEMENT_3D ( 'NONE', #171, #21, #210 ) ;
#23 = CARTESIAN_POINT ( 'NONE',  ( 0.000000000000000000, 0.000000000000000000, 3.200000000000008171 ) ) ;
#24 = ORIENTED_EDGE ( 'NONE', *, *, #118, .F. ) ;
#25 = VERTEX_POINT ( 'NONE', #96 ) ;
#26 = EDGE_CURVE ( 'NONE', #43, #45, #59, .T. ) ;
#27 = CARTESIAN_POINT ( 'NONE',  ( 0.000000000000000000, 0.000000000000000000, 3.000000000000000000 ) ) ;
#28 = EDGE_LOOP ( 'NONE', ( #190, #14, #213, #152 ) ) ;
#29 = VECTOR ( 'NONE', #189, 1000.000000000000000 ) ;
#30 = FACE_BOUND ( 'NONE', #218, .T. ) ;
#31 = CARTESIAN_POINT ( 'NONE',  ( 0.000000000000000000, 0.000000000000000000, 3.200000000000008171 ) ) ;
#32 = DIRECTION ( 'NONE',  ( 0.000000000000000000, 0.000000000000000000, 1.000000000000000000 ) ) ;
#33 = ADVANCED_FACE ( 'NONE', ( #283 ), #174, .T. ) ;
#34 = PERSON_AND_ORGANIZATION ( #163, #256 ) ;
#35 = AXIS2_PLACEMENT_3D ( 'NONE', #289, #119, #143 ) ;
#36 = PERSON_AND_ORGANIZATION ( #163, #256 ) ;
#37 = DIRECTION ( 'NONE',  ( 1.000000000000000000, 0.000000000000000000, 0.000000000000000000 ) ) ;
#38 = APPROVAL_DATE_TIME ( #107, #173 ) ;
#39 = APPROVAL_STATUS ( 'not_yet_approved' ) ;
#40 = AXIS2_PLACEMENT_3D ( 'NONE', #193, #6, #145 ) ;
#41 = CC_DESIGN_SECURITY_CLASSIFICATION ( #109, ( #220 ) ) ;
#42 = VERTEX_POINT ( 'NONE', #76 ) ;
#43 = VERTEX_POINT ( 'NONE', #176 ) ;
#44 = PLANE ( 'NONE',  #167 ) ;
#45 = VERTEX_POINT ( 'NONE', #47 ) ;
#46 = CARTESIAN_POINT ( 'NONE',  ( 0.000000000000000000, 0.000000000000000000, 3.000000000000000000 ) ) ;
#47 = CARTESIAN_POINT ( 'NONE',  ( -2.750000000000000000, 0.000000000000000000, 203.0000000000000000 ) ) ;
#48 = CC_DESIGN_DATE_AND_TIME_ASSIGNMENT ( #84, #110, ( #109 ) ) ;
#49 = DIRECTION ( 'NONE',  ( 1.000000000000000000, 0.000000000000000000, 0.000000000000000000 ) ) ;
#50 = LINE ( 'NONE', #93, #29 ) ;
#51 = APPROVAL_PERSON_ORGANIZATION ( #179, #95, #180 ) ;
#52 = VERTEX_POINT ( 'NONE', #55 ) ;
#53 = PRODUCT_DEFINITION_SHAPE ( 'NONE', 'NONE',  #196 ) ;
#54 = EDGE_CURVE ( 'NONE', #205, #42, #56, .T. ) ;
#55 = CARTESIAN_POINT ( 'NONE',  ( 2.750000000000000000, 3.367778697655221012E-16, 3.200000000000008171 ) ) ;
#56 = LINE ( 'NONE', #73, #138 ) ;
#57 = CARTESIAN_POINT ( 'NONE',  ( 0.000000000000000000, 0.000000000000000000, 3.000000000000000000 ) ) ;
#58 = DIRECTION ( 'NONE',  ( 1.000000000000000000, 0.000000000000000000, 0.000000000000000000 ) ) ;
#59 = CIRCLE ( 'NONE', #211, 2.750000000000000000 ) ;
#60 = FACE_OUTER_BOUND ( 'NONE', #185, .T. ) ;
#61 = APPLICATION_PROTOCOL_DEFINITION ( 'international standard', 'config_control_design', 1994, #114 ) ;
#62 = APPROVAL_STATUS ( 'not_yet_approved' ) ;
#63 = COORDINATED_UNIVERSAL_TIME_OFFSET ( 1, 0, .AHEAD. ) ;
#64 = APPROVAL_ROLE ( '' ) ;
#65 = ORIENTED_EDGE ( 'NONE', *, *, #245, .T. ) ;
#66 = AXIS2_PLACEMENT_3D ( 'NONE', #57, #71, #187 ) ;
#67 = ORIENTED_EDGE ( 'NONE', *, *, #245, .F. ) ;
#68 = APPROVAL_PERSON_ORGANIZATION ( #247, #201, #203 ) ;
#69 = CARTESIAN_POINT ( 'NONE',  ( -2.949999999999999734, 3.612708057484692097E-16, 3.000000000000004441 ) ) ;
#70 = CC_DESIGN_DATE_AND_TIME_ASSIGNMENT ( #248, #222, ( #196 ) ) ;
#71 = DIRECTION ( 'NONE',  ( 0.000000000000000000, 0.000000000000000000, 1.000000000000000000 ) ) ;
#72 = ORIENTED_EDGE ( 'NONE', *, *, #297, .T. ) ;
#73 = CARTESIAN_POINT ( 'NONE',  ( 5.000000000000000000, 6.123233995736766282E-16, 3.000000000000000000 ) ) ;
#74 = ADVANCED_FACE ( 'NONE', ( #233 ), #237, .T. ) ;
#75 = LOCAL_TIME ( 12, 15, 44.00000000000000000, #199 ) ;
#76 = CARTESIAN_POINT ( 'NONE',  ( 5.000000000000000000, 6.123233995736766282E-16, 0.000000000000000000 ) ) ;
#77 = DESIGN_CONTEXT ( 'detailed design', #114, 'design' ) ;
#78 = EDGE_LOOP ( 'NONE', ( #112, #263 ) ) ;
#79 = DIRECTION ( 'NONE',  ( 1.000000000000000000, 0.000000000000000000, 0.000000000000000000 ) ) ;
#80 = DIRECTION ( 'NONE',  ( 0.000000000000000000, 0.000000000000000000, 1.000000000000000000 ) ) ;
#81 = DIRECTION ( 'NONE',  ( -0.000000000000000000, -0.000000000000000000, -1.000000000000000000 ) ) ;
#82 = AXIS2_PLACEMENT_3D ( 'NONE', #192, #98, #5 ) ;
#83 = DIRECTION ( 'NONE',  ( 1.000000000000000000, 0.000000000000000000, 0.000000000000000000 ) ) ;
#84 = DATE_AND_TIME ( #198, #295 ) ;
#85 = PERSON_AND_ORGANIZATION_ROLE ( 'design_supplier' ) ;
#86 = AXIS2_PLACEMENT_3D ( 'NONE', #23, #261, #214 ) ;
#87 = APPLICATION_PROTOCOL_DEFINITION ( 'international standard', 'config_control_design', 1994, #275 ) ;
#88 = ADVANCED_BREP_SHAPE_REPRESENTATION ( '7551', ( #239, #178 ), #304 ) ;
#89 = DATE_AND_TIME ( #164, #242 ) ;
#90 = AXIS2_PLACEMENT_3D ( 'NONE', #27, #290, #277 ) ;
#91 = EDGE_CURVE ( 'NONE', #25, #19, #50, .T. ) ;
#92 = FACE_OUTER_BOUND ( 'NONE', #100, .T. ) ;
#93 = CARTESIAN_POINT ( 'NONE',  ( -5.000000000000000000, 0.000000000000000000, 3.000000000000000000 ) ) ;
#94 = DIRECTION ( 'NONE',  ( 1.000000000000000000, 0.000000000000000000, 0.000000000000000000 ) ) ;
#95 = APPROVAL ( #9, 'NEURÈENÝ' ) ;
#96 = CARTESIAN_POINT ( 'NONE',  ( -5.000000000000000000, 0.000000000000000000, 3.000000000000000000 ) ) ;
#97 = CC_DESIGN_APPROVAL ( #173, ( #109 ) ) ;
#98 = DIRECTION ( 'NONE',  ( 0.000000000000000000, 0.000000000000000000, 1.000000000000000000 ) ) ;
#99 = DIRECTION ( 'NONE',  ( 0.000000000000000000, 0.000000000000000000, 1.000000000000000000 ) ) ;
#100 = EDGE_LOOP ( 'NONE', ( #238, #253 ) ) ;
#101 = FACE_OUTER_BOUND ( 'NONE', #28, .T. ) ;
#102 = EDGE_CURVE ( 'NONE', #45, #139, #282, .T. ) ;
#103 = FACE_OUTER_BOUND ( 'NONE', #117, .T. ) ;
#104 = AXIS2_PLACEMENT_3D ( 'NONE', #244, #259, #49 ) ;
#105 = COORDINATED_UNIVERSAL_TIME_OFFSET ( 1, 0, .AHEAD. ) ;
#106 = CALENDAR_DATE ( 2022, 7, 7 ) ;
#107 = DATE_AND_TIME ( #162, #229 ) ;
#108 = CIRCLE ( 'NONE', #278, 2.750000000000000000 ) ;
#109 = SECURITY_CLASSIFICATION ( '', '', #181 ) ;
#110 = DATE_TIME_ROLE ( 'classification_date' ) ;
#111 = EDGE_CURVE ( 'NONE', #52, #139, #142, .T. ) ;
#112 = ORIENTED_EDGE ( 'NONE', *, *, #221, .T. ) ;
#113 = MECHANICAL_CONTEXT ( 'NONE', #275, 'mechanical' ) ;
#114 = APPLICATION_CONTEXT ( 'configuration controlled 3d designs of mechanical parts and assemblies' ) ;
#115 = EDGE_LOOP ( 'NONE', ( #67, #170, #300, #16 ) ) ;
#116 = CIRCLE ( 'NONE', #240, 0.2000000000000000944 ) ;
#117 = EDGE_LOOP ( 'NONE', ( #207, #125 ) ) ;
#118 = EDGE_CURVE ( 'NONE', #52, #17, #116, .T. ) ;
#119 = DIRECTION ( 'NONE',  ( 1.224646799147353207E-16, 1.000000000000000000, -0.000000000000000000 ) ) ;
#120 = LINE ( 'NONE', #266, #161 ) ;
#121 = ORIENTED_EDGE ( 'NONE', *, *, #102, .F. ) ;
#122 = CIRCLE ( 'NONE', #104, 5.000000000000000000 ) ;
#123 = PRODUCT ( '7551', '7551', '', ( #113 ) ) ;
#124 = DIRECTION ( 'NONE',  ( 0.000000000000000000, 0.000000000000000000, 1.000000000000000000 ) ) ;
#125 = ORIENTED_EDGE ( 'NONE', *, *, #165, .T. ) ;
#126 = CARTESIAN_POINT ( 'NONE',  ( 0.000000000000000000, 0.000000000000000000, 0.000000000000000000 ) ) ;
#127 = CARTESIAN_POINT ( 'NONE',  ( 0.000000000000000000, 0.000000000000000000, 203.0000000000000000 ) ) ;
#128 = EDGE_LOOP ( 'NONE', ( #252, #72, #298, #121 ) ) ;
#129 = FACE_OUTER_BOUND ( 'NONE', #276, .T. ) ;
#130 = EDGE_CURVE ( 'NONE', #139, #52, #262, .T. ) ;
#131 = DIRECTION ( 'NONE',  ( 0.000000000000000000, 0.000000000000000000, 1.000000000000000000 ) ) ;
#132 = CYLINDRICAL_SURFACE ( 'NONE', #274, 5.000000000000000000 ) ;
#133 = APPROVAL_DATE_TIME ( #160, #201 ) ;
#134 = CIRCLE ( 'NONE', #206, 2.949999999999999734 ) ;
#135 = EDGE_CURVE ( 'NONE', #25, #205, #216, .T. ) ;
#136 = PERSON_AND_ORGANIZATION ( #163, #256 ) ;
#137 = COORDINATED_UNIVERSAL_TIME_OFFSET ( 1, 0, .AHEAD. ) ;
#138 = VECTOR ( 'NONE', #153, 1000.000000000000000 ) ;
#139 = VERTEX_POINT ( 'NONE', #18 ) ;
#140 = CC_DESIGN_PERSON_AND_ORGANIZATION_ASSIGNMENT ( #246, #85, ( #220 ) ) ;
#141 = ORIENTED_EDGE ( 'NONE', *, *, #297, .F. ) ;
#142 = CIRCLE ( 'NONE', #86, 2.750000000000000000 ) ;
#143 = DIRECTION ( 'NONE',  ( -1.000000000000000000, 1.224646799147353207E-16, 0.000000000000000000 ) ) ;
#144 = ORIENTED_EDGE ( 'NONE', *, *, #147, .F. ) ;
#145 = DIRECTION ( 'NONE',  ( -1.000000000000000000, 0.000000000000000000, 0.000000000000000000 ) ) ;
#146 = ORIENTED_EDGE ( 'NONE', *, *, #291, .T. ) ;
#147 = EDGE_CURVE ( 'NONE', #17, #194, #251, .T. ) ;
#148 = CARTESIAN_POINT ( 'NONE',  ( 5.000000000000000000, 6.123233995736766282E-16, 3.000000000000000000 ) ) ;
#149 = DIRECTION ( 'NONE',  ( -0.000000000000000000, -0.000000000000000000, -1.000000000000000000 ) ) ;
#150 = AXIS2_PLACEMENT_3D ( 'NONE', #208, #32, #155 ) ;
#151 = LOCAL_TIME ( 12, 15, 44.00000000000000000, #137 ) ;
#152 = ORIENTED_EDGE ( 'NONE', *, *, #91, .F. ) ;
#153 = DIRECTION ( 'NONE',  ( -0.000000000000000000, -0.000000000000000000, -1.000000000000000000 ) ) ;
#154 = DIRECTION ( 'NONE',  ( 1.000000000000000000, 0.000000000000000000, 0.000000000000000000 ) ) ;
#155 = DIRECTION ( 'NONE',  ( 1.000000000000000000, 0.000000000000000000, 0.000000000000000000 ) ) ;
#156 = CARTESIAN_POINT ( 'NONE',  ( 2.949999999999999734, 0.000000000000000000, 3.200000000000008171 ) ) ;
#157 = DIRECTION ( 'NONE',  ( 1.000000000000000000, 0.000000000000000000, 0.000000000000000000 ) ) ;
#158 = APPROVAL_DATE_TIME ( #89, #95 ) ;
#159 = ADVANCED_FACE ( 'NONE', ( #60 ), #132, .T. ) ;
#160 = DATE_AND_TIME ( #296, #75 ) ;
#161 = VECTOR ( 'NONE', #81, 1000.000000000000000 ) ;
#162 = CALENDAR_DATE ( 2022, 7, 7 ) ;
#163 = PERSON ( 'NEURÈENÝ', 'NEURÈENÝ', 'NEURÈENÝ', ('NEURÈENÝ'), ('NEURÈENÝ'), ('NEURÈENÝ') ) ;
#164 = CALENDAR_DATE ( 2022, 7, 7 ) ;
#165 = EDGE_CURVE ( 'NONE', #205, #25, #122, .T. ) ;
#166 = ORIENTED_EDGE ( 'NONE', *, *, #135, .F. ) ;
#167 = AXIS2_PLACEMENT_3D ( 'NONE', #46, #3, #197 ) ;
#168 = DIRECTION ( 'NONE',  ( 1.000000000000000000, 0.000000000000000000, -0.000000000000000000 ) ) ;
#169 = CARTESIAN_POINT ( 'NONE',  ( 0.000000000000000000, 0.000000000000000000, 3.000000000000000000 ) ) ;
#170 = ORIENTED_EDGE ( 'NONE', *, *, #111, .F. ) ;
#171 = CARTESIAN_POINT ( 'NONE',  ( 0.000000000000000000, 0.000000000000000000, 203.0000000000000000 ) ) ;
#172 = ORIENTED_EDGE ( 'NONE', *, *, #91, .T. ) ;
#173 = APPROVAL ( #62, 'NEURÈENÝ' ) ;
#174 = PLANE ( 'NONE',  #226 ) ;
#175 = CYLINDRICAL_SURFACE ( 'NONE', #90, 5.000000000000000000 ) ;
#176 = CARTESIAN_POINT ( 'NONE',  ( 2.750000000000000000, 3.367778697655221012E-16, 203.0000000000000000 ) ) ;
#177 = AXIS2_PLACEMENT_3D ( 'NONE', #195, #230, #168 ) ;
#178 = AXIS2_PLACEMENT_3D ( 'NONE', #202, #249, #37 ) ;
#179 = PERSON_AND_ORGANIZATION ( #163, #256 ) ;
#180 = APPROVAL_ROLE ( '' ) ;
#181 = SECURITY_CLASSIFICATION_LEVEL ( 'unclassified' ) ;
#182 = AXIS2_PLACEMENT_3D ( 'NONE', #31, #131, #58 ) ;
#183 = PERSON_AND_ORGANIZATION_ROLE ( 'creator' ) ;
#184 = CC_DESIGN_PERSON_AND_ORGANIZATION_ASSIGNMENT ( #34, #293, ( #123 ) ) ;
#185 = EDGE_LOOP ( 'NONE', ( #228, #166, #172, #225 ) ) ;
#186 = CIRCLE ( 'NONE', #227, 5.000000000000000000 ) ;
#187 = DIRECTION ( 'NONE',  ( 1.000000000000000000, 0.000000000000000000, 0.000000000000000000 ) ) ;
#188 = ADVANCED_FACE ( 'NONE', ( #234 ), #2, .F. ) ;
#189 = DIRECTION ( 'NONE',  ( -0.000000000000000000, -0.000000000000000000, -1.000000000000000000 ) ) ;
#190 = ORIENTED_EDGE ( 'NONE', *, *, #165, .F. ) ;
#191 = ADVANCED_FACE ( 'NONE', ( #30, #103 ), #44, .T. ) ;
#192 = CARTESIAN_POINT ( 'NONE',  ( 0.000000000000000000, 0.000000000000000000, 3.200000000000008171 ) ) ;
#193 = CARTESIAN_POINT ( 'NONE',  ( 0.000000000000000000, 0.000000000000000000, 203.0000000000000000 ) ) ;
#194 = VERTEX_POINT ( 'NONE', #69 ) ;
#195 = CARTESIAN_POINT ( 'NONE',  ( 0.000000000000000000, 0.000000000000000000, 0.000000000000000000 ) ) ;
#196 = PRODUCT_DEFINITION ( 'NEZNÁMÝ', '', #220, #77 ) ;
#197 = DIRECTION ( 'NONE',  ( 1.000000000000000000, 0.000000000000000000, -0.000000000000000000 ) ) ;
#198 = CALENDAR_DATE ( 2022, 7, 7 ) ;
#199 = COORDINATED_UNIVERSAL_TIME_OFFSET ( 1, 0, .AHEAD. ) ;
#200 = SHAPE_DEFINITION_REPRESENTATION ( #53, #88 ) ;
#201 = APPROVAL ( #39, 'NEURÈENÝ' ) ;
#202 = CARTESIAN_POINT ( 'NONE',  ( 0.000000000000000000, 0.000000000000000000, 0.000000000000000000 ) ) ;
#203 = APPROVAL_ROLE ( '' ) ;
#204 = ADVANCED_FACE ( 'NONE', ( #101 ), #175, .T. ) ;
#205 = VERTEX_POINT ( 'NONE', #148 ) ;
#206 = AXIS2_PLACEMENT_3D ( 'NONE', #232, #20, #157 ) ;
#207 = ORIENTED_EDGE ( 'NONE', *, *, #135, .T. ) ;
#208 = CARTESIAN_POINT ( 'NONE',  ( 0.000000000000000000, 0.000000000000000000, 3.200000000000008171 ) ) ;
#209 = CC_DESIGN_PERSON_AND_ORGANIZATION_ASSIGNMENT ( #136, #183, ( #220 ) ) ;
#210 = DIRECTION ( 'NONE',  ( -1.000000000000000000, 0.000000000000000000, 0.000000000000000000 ) ) ;
#211 = AXIS2_PLACEMENT_3D ( 'NONE', #286, #235, #94 ) ;
#212 = APPROVAL_PERSON_ORGANIZATION ( #272, #173, #64 ) ;
#213 = ORIENTED_EDGE ( 'NONE', *, *, #231, .T. ) ;
#214 = DIRECTION ( 'NONE',  ( 1.000000000000000000, 0.000000000000000000, 0.000000000000000000 ) ) ;
#215 = EDGE_LOOP ( 'NONE', ( #307, #65, #144, #24 ) ) ;
#216 = CIRCLE ( 'NONE', #66, 5.000000000000000000 ) ;
#217 = PLANE ( 'NONE',  #177 ) ;
#218 = EDGE_LOOP ( 'NONE', ( #284, #146 ) ) ;
#219 = CARTESIAN_POINT ( 'NONE',  ( 0.000000000000000000, 0.000000000000000000, 3.000000000000000000 ) ) ;
#220 = PRODUCT_DEFINITION_FORMATION_WITH_SPECIFIED_SOURCE ( 'LIBOVOLNÝ', '', #123, .NOT_KNOWN. ) ;
#221 = EDGE_CURVE ( 'NONE', #45, #43, #108, .T. ) ;
#222 = DATE_TIME_ROLE ( 'creation_date' ) ;
#223 = CIRCLE ( 'NONE', #35, 0.2000000000000000944 ) ;
#224 = CC_DESIGN_APPROVAL ( #201, ( #196 ) ) ;
#225 = ORIENTED_EDGE ( 'NONE', *, *, #8, .T. ) ;
#226 = AXIS2_PLACEMENT_3D ( 'NONE', #305, #80, #265 ) ;
#227 = AXIS2_PLACEMENT_3D ( 'NONE', #126, #124, #154 ) ;
#228 = ORIENTED_EDGE ( 'NONE', *, *, #54, .F. ) ;
#229 = LOCAL_TIME ( 12, 15, 44.00000000000000000, #63 ) ;
#230 = DIRECTION ( 'NONE',  ( 0.000000000000000000, 0.000000000000000000, 1.000000000000000000 ) ) ;
#231 = EDGE_CURVE ( 'NONE', #42, #19, #12, .T. ) ;
#232 = CARTESIAN_POINT ( 'NONE',  ( 0.000000000000000000, 0.000000000000000000, 3.000000000000000000 ) ) ;
#233 = FACE_OUTER_BOUND ( 'NONE', #128, .T. ) ;
#234 = FACE_OUTER_BOUND ( 'NONE', #115, .T. ) ;
#235 = DIRECTION ( 'NONE',  ( 0.000000000000000000, 0.000000000000000000, 1.000000000000000000 ) ) ;
#236 = CARTESIAN_POINT ( 'NONE',  ( -5.000000000000000000, 0.000000000000000000, 0.000000000000000000 ) ) ;
#237 = CYLINDRICAL_SURFACE ( 'NONE', #22, 2.750000000000000000 ) ;
#238 = ORIENTED_EDGE ( 'NONE', *, *, #8, .F. ) ;
#239 = MANIFOLD_SOLID_BREP ( 'Zaoblit1', #255 ) ;
#240 = AXIS2_PLACEMENT_3D ( 'NONE', #156, #243, #267 ) ;
#241 = DIRECTION ( 'NONE',  ( 0.000000000000000000, 0.000000000000000000, 1.000000000000000000 ) ) ;
#242 = LOCAL_TIME ( 12, 15, 44.00000000000000000, #271 ) ;
#243 = DIRECTION ( 'NONE',  ( 0.000000000000000000, -1.000000000000000000, 0.000000000000000000 ) ) ;
#244 = CARTESIAN_POINT ( 'NONE',  ( 0.000000000000000000, 0.000000000000000000, 3.000000000000000000 ) ) ;
#245 = EDGE_CURVE ( 'NONE', #139, #194, #223, .T. ) ;
#246 = PERSON_AND_ORGANIZATION ( #163, #256 ) ;
#247 = PERSON_AND_ORGANIZATION ( #163, #256 ) ;
#248 = DATE_AND_TIME ( #106, #151 ) ;
#249 = DIRECTION ( 'NONE',  ( 0.000000000000000000, 0.000000000000000000, 1.000000000000000000 ) ) ;
#250 = ADVANCED_FACE ( 'NONE', ( #92 ), #217, .F. ) ;
#251 = CIRCLE ( 'NONE', #285, 2.949999999999999734 ) ;
#252 = ORIENTED_EDGE ( 'NONE', *, *, #26, .F. ) ;
#253 = ORIENTED_EDGE ( 'NONE', *, *, #231, .F. ) ;
#254 = DIRECTION ( 'NONE',  ( -0.000000000000000000, -0.000000000000000000, -1.000000000000000000 ) ) ;
#255 = CLOSED_SHELL ( 'NONE', ( #4, #74, #204, #159, #191, #250, #268, #33, #188 ) ) ;
#256 = ORGANIZATION ( 'NEURÈENÝ', 'NEURÈENÝ', '' ) ;
#257 = CC_DESIGN_PERSON_AND_ORGANIZATION_ASSIGNMENT ( #11, #273, ( #109 ) ) ;
#258 = DIRECTION ( 'NONE',  ( -1.000000000000000000, 0.000000000000000000, 0.000000000000000000 ) ) ;
#259 = DIRECTION ( 'NONE',  ( 0.000000000000000000, 0.000000000000000000, 1.000000000000000000 ) ) ;
#260 = CARTESIAN_POINT ( 'NONE',  ( -2.750000000000000000, 0.000000000000000000, 203.0000000000000000 ) ) ;
#261 = DIRECTION ( 'NONE',  ( 0.000000000000000000, 0.000000000000000000, 1.000000000000000000 ) ) ;
#262 = CIRCLE ( 'NONE', #182, 2.750000000000000000 ) ;
#263 = ORIENTED_EDGE ( 'NONE', *, *, #26, .T. ) ;
#264 = UNCERTAINTY_MEASURE_WITH_UNIT (LENGTH_MEASURE( 1.000000000000000082E-05 ), #281, 'distance_accuracy_value', 'NONE');
#265 = DIRECTION ( 'NONE',  ( 1.000000000000000000, 0.000000000000000000, -0.000000000000000000 ) ) ;
#266 = CARTESIAN_POINT ( 'NONE',  ( 2.750000000000000000, 3.367778697655221012E-16, 203.0000000000000000 ) ) ;
#267 = DIRECTION ( 'NONE',  ( 0.000000000000000000, 0.000000000000000000, -1.000000000000000000 ) ) ;
#268 = ADVANCED_FACE ( 'NONE', ( #129 ), #303, .T. ) ;
#269 = VECTOR ( 'NONE', #149, 1000.000000000000000 ) ;
#270 = CARTESIAN_POINT ( 'NONE',  ( 0.000000000000000000, 0.000000000000000000, 0.000000000000000000 ) ) ;
#271 = COORDINATED_UNIVERSAL_TIME_OFFSET ( 1, 0, .AHEAD. ) ;
#272 = PERSON_AND_ORGANIZATION ( #163, #256 ) ;
#273 = PERSON_AND_ORGANIZATION_ROLE ( 'classification_officer' ) ;
#274 = AXIS2_PLACEMENT_3D ( 'NONE', #219, #302, #258 ) ;
#275 = APPLICATION_CONTEXT ( 'configuration controlled 3d designs of mechanical parts and assemblies' ) ;
#276 = EDGE_LOOP ( 'NONE', ( #141, #1, #280, #15 ) ) ;
#277 = DIRECTION ( 'NONE',  ( -1.000000000000000000, 0.000000000000000000, 0.000000000000000000 ) ) ;
#278 = AXIS2_PLACEMENT_3D ( 'NONE', #127, #241, #83 ) ;
#279 = CC_DESIGN_APPROVAL ( #95, ( #220 ) ) ;
#280 = ORIENTED_EDGE ( 'NONE', *, *, #102, .T. ) ;
#281 =( LENGTH_UNIT ( ) NAMED_UNIT ( * ) SI_UNIT ( .MILLI., .METRE. ) );
#282 = LINE ( 'NONE', #260, #269 ) ;
#283 = FACE_OUTER_BOUND ( 'NONE', #78, .T. ) ;
#284 = ORIENTED_EDGE ( 'NONE', *, *, #147, .T. ) ;
#285 = AXIS2_PLACEMENT_3D ( 'NONE', #169, #254, #79 ) ;
#286 = CARTESIAN_POINT ( 'NONE',  ( 0.000000000000000000, 0.000000000000000000, 203.0000000000000000 ) ) ;
#287 = DIRECTION ( 'NONE',  ( 1.000000000000000000, 0.000000000000000000, 0.000000000000000000 ) ) ;
#288 = FACE_OUTER_BOUND ( 'NONE', #215, .T. ) ;
#289 = CARTESIAN_POINT ( 'NONE',  ( -2.949999999999999734, 3.612708057484692097E-16, 3.200000000000008171 ) ) ;
#290 = DIRECTION ( 'NONE',  ( -0.000000000000000000, -0.000000000000000000, -1.000000000000000000 ) ) ;
#291 = EDGE_CURVE ( 'NONE', #194, #17, #134, .T. ) ;
#292 =( NAMED_UNIT ( * ) SI_UNIT ( $, .STERADIAN. ) SOLID_ANGLE_UNIT ( ) );
#293 = PERSON_AND_ORGANIZATION_ROLE ( 'design_owner' ) ;
#294 = TOROIDAL_SURFACE ( 'NONE', #82, 2.949999999999999734, 0.2000000000000000111 ) ;
#295 = LOCAL_TIME ( 12, 15, 44.00000000000000000, #105 ) ;
#296 = CALENDAR_DATE ( 2022, 7, 7 ) ;
#297 = EDGE_CURVE ( 'NONE', #43, #52, #120, .T. ) ;
#298 = ORIENTED_EDGE ( 'NONE', *, *, #111, .T. ) ;
#299 = AXIS2_PLACEMENT_3D ( 'NONE', #270, #99, #287 ) ;
#300 = ORIENTED_EDGE ( 'NONE', *, *, #118, .T. ) ;
#301 = PRODUCT_RELATED_PRODUCT_CATEGORY ( 'detail', '', ( #123 ) ) ;
#302 = DIRECTION ( 'NONE',  ( -0.000000000000000000, -0.000000000000000000, -1.000000000000000000 ) ) ;
#303 = CYLINDRICAL_SURFACE ( 'NONE', #40, 2.750000000000000000 ) ;
#304 =( GEOMETRIC_REPRESENTATION_CONTEXT ( 3 ) GLOBAL_UNCERTAINTY_ASSIGNED_CONTEXT ( ( #264 ) ) GLOBAL_UNIT_ASSIGNED_CONTEXT ( ( #281, #7, #292 ) ) REPRESENTATION_CONTEXT ( 'NONE', 'WORKASPACE' ) );
#305 = CARTESIAN_POINT ( 'NONE',  ( 0.000000000000000000, 0.000000000000000000, 203.0000000000000000 ) ) ;
#306 = CARTESIAN_POINT ( 'NONE',  ( 2.949999999999999734, 0.000000000000000000, 3.000000000000004441 ) ) ;
#307 = ORIENTED_EDGE ( 'NONE', *, *, #130, .F. ) ;
ENDSEC;
END-ISO-10303-21;
