ISO-10303-21;
HEADER;
FILE_DESCRIPTION (( 'STEP AP203' ),
    '1' );
FILE_NAME ('f5c7.STEP',
    '2023-02-12T12:55:33',
    ( '' ),
    ( '' ),
    'SwSTEP 2.0',
    'SolidWorks 2019',
    '' );
FILE_SCHEMA (( 'CONFIG_CONTROL_DESIGN' ));
ENDSEC;

DATA;
#1 = VERTEX_POINT ( 'NONE', #88 ) ;
#2 = AXIS2_PLACEMENT_3D ( 'NONE', #157, #229, #211 ) ;
#3 = DIRECTION ( 'NONE',  ( -1.000000000000000000, 0.000000000000000000, 0.000000000000000000 ) ) ;
#4 = DIRECTION ( 'NONE',  ( -0.000000000000000000, -0.000000000000000000, -1.000000000000000000 ) ) ;
#5 = CC_DESIGN_APPROVAL ( #91, ( #8 ) ) ;
#6 = AXIS2_PLACEMENT_3D ( 'NONE', #50, #27, #3 ) ;
#7 = DIRECTION ( 'NONE',  ( -0.000000000000000000, -0.000000000000000000, -1.000000000000000000 ) ) ;
#8 = PRODUCT_DEFINITION ( 'NEZNÁMÝ', '', #208, #124 ) ;
#9 = ADVANCED_FACE ( 'NONE', ( #111, #89 ), #147, .T. ) ;
#10 = CARTESIAN_POINT ( 'NONE',  ( 0.000000000000000000, 0.000000000000000000, 100.0000000000000000 ) ) ;
#11 = CARTESIAN_POINT ( 'NONE',  ( 0.8499999999999999778, 1.040949779275250140E-16, 100.0000000000000000 ) ) ;
#12 = ORIENTED_EDGE ( 'NONE', *, *, #45, .F. ) ;
#13 = CARTESIAN_POINT ( 'NONE',  ( 0.000000000000000000, 0.000000000000000000, 100.0000000000000000 ) ) ;
#14 =( NAMED_UNIT ( * ) PLANE_ANGLE_UNIT ( ) SI_UNIT ( $, .RADIAN. ) );
#15 = CC_DESIGN_APPROVAL ( #210, ( #208 ) ) ;
#16 = CARTESIAN_POINT ( 'NONE',  ( 2.000000000000000000, 2.449293598294706414E-16, 1.500000000000000000 ) ) ;
#17 = DIRECTION ( 'NONE',  ( 1.000000000000000000, 0.000000000000000000, 0.000000000000000000 ) ) ;
#18 = LOCAL_TIME ( 13, 55, 33.00000000000000000, #121 ) ;
#19 = APPROVAL_STATUS ( 'not_yet_approved' ) ;
#20 = ORIENTED_EDGE ( 'NONE', *, *, #99, .F. ) ;
#21 = ORIENTED_EDGE ( 'NONE', *, *, #236, .F. ) ;
#22 = APPLICATION_CONTEXT ( 'configuration controlled 3d designs of mechanical parts and assemblies' ) ;
#23 = VECTOR ( 'NONE', #7, 1000.000000000000000 ) ;
#24 = VERTEX_POINT ( 'NONE', #149 ) ;
#25 = DATE_AND_TIME ( #128, #47 ) ;
#26 = PERSON_AND_ORGANIZATION ( #123, #71 ) ;
#27 = DIRECTION ( 'NONE',  ( -0.000000000000000000, -0.000000000000000000, -1.000000000000000000 ) ) ;
#28 = PRODUCT_DEFINITION_SHAPE ( 'NONE', 'NONE',  #8 ) ;
#29 = PERSON_AND_ORGANIZATION_ROLE ( 'design_supplier' ) ;
#30 = FACE_OUTER_BOUND ( 'NONE', #194, .T. ) ;
#31 = APPROVAL_DATE_TIME ( #42, #210 ) ;
#32 = DIRECTION ( 'NONE',  ( -1.000000000000000000, 0.000000000000000000, 0.000000000000000000 ) ) ;
#33 = ADVANCED_FACE ( 'NONE', ( #167 ), #222, .T. ) ;
#34 = CIRCLE ( 'NONE', #163, 0.8499999999999999778 ) ;
#35 = CYLINDRICAL_SURFACE ( 'NONE', #86, 0.8499999999999999778 ) ;
#36 = DIRECTION ( 'NONE',  ( 0.000000000000000000, 0.000000000000000000, 1.000000000000000000 ) ) ;
#37 = CARTESIAN_POINT ( 'NONE',  ( -0.8499999999999999778, 0.000000000000000000, 100.0000000000000000 ) ) ;
#38 = FACE_OUTER_BOUND ( 'NONE', #142, .T. ) ;
#39 = DIRECTION ( 'NONE',  ( -1.000000000000000000, 0.000000000000000000, 0.000000000000000000 ) ) ;
#40 = CC_DESIGN_PERSON_AND_ORGANIZATION_ASSIGNMENT ( #143, #161, ( #207 ) ) ;
#41 = APPLICATION_PROTOCOL_DEFINITION ( 'international standard', 'config_control_design', 1994, #22 ) ;
#42 = DATE_AND_TIME ( #189, #43 ) ;
#43 = LOCAL_TIME ( 13, 55, 33.00000000000000000, #73 ) ;
#44 = DIRECTION ( 'NONE',  ( 1.000000000000000000, 0.000000000000000000, 0.000000000000000000 ) ) ;
#45 = EDGE_CURVE ( 'NONE', #233, #75, #200, .T. ) ;
#46 = VERTEX_POINT ( 'NONE', #58 ) ;
#47 = LOCAL_TIME ( 13, 55, 33.00000000000000000, #214 ) ;
#48 = LINE ( 'NONE', #11, #94 ) ;
#49 = PERSON_AND_ORGANIZATION ( #123, #71 ) ;
#50 = CARTESIAN_POINT ( 'NONE',  ( 0.000000000000000000, 0.000000000000000000, 1.500000000000000000 ) ) ;
#51 = CALENDAR_DATE ( 2023, 12, 2 ) ;
#52 = EDGE_CURVE ( 'NONE', #233, #1, #80, .T. ) ;
#53 = ORIENTED_EDGE ( 'NONE', *, *, #203, .T. ) ;
#54 = CARTESIAN_POINT ( 'NONE',  ( 0.000000000000000000, 0.000000000000000000, 1.500000000000000000 ) ) ;
#55 = AXIS2_PLACEMENT_3D ( 'NONE', #13, #248, #140 ) ;
#56 = CIRCLE ( 'NONE', #155, 0.8499999999999999778 ) ;
#57 = EDGE_LOOP ( 'NONE', ( #218, #53 ) ) ;
#58 = CARTESIAN_POINT ( 'NONE',  ( 2.000000000000000000, 2.449293598294706414E-16, 1.500000000000000000 ) ) ;
#59 = CC_DESIGN_APPROVAL ( #144, ( #207 ) ) ;
#60 = PERSON_AND_ORGANIZATION ( #123, #71 ) ;
#61 = LINE ( 'NONE', #16, #177 ) ;
#62 = ADVANCED_FACE ( 'NONE', ( #221 ), #245, .F. ) ;
#63 =( NAMED_UNIT ( * ) SI_UNIT ( $, .STERADIAN. ) SOLID_ANGLE_UNIT ( ) );
#64 = EDGE_CURVE ( 'NONE', #215, #46, #127, .T. ) ;
#65 = EDGE_CURVE ( 'NONE', #1, #154, #34, .T. ) ;
#66 = COORDINATED_UNIVERSAL_TIME_OFFSET ( 1, 0, .AHEAD. ) ;
#67 = DATE_TIME_ROLE ( 'classification_date' ) ;
#68 = CIRCLE ( 'NONE', #234, 2.000000000000000000 ) ;
#69 = APPLICATION_CONTEXT ( 'configuration controlled 3d designs of mechanical parts and assemblies' ) ;
#70 = MECHANICAL_CONTEXT ( 'NONE', #22, 'mechanical' ) ;
#71 = ORGANIZATION ( 'NEURÈENÝ', 'NEURÈENÝ', '' ) ;
#72 = EDGE_LOOP ( 'NONE', ( #187, #209 ) ) ;
#73 = COORDINATED_UNIVERSAL_TIME_OFFSET ( 1, 0, .AHEAD. ) ;
#74 = CYLINDRICAL_SURFACE ( 'NONE', #122, 0.8499999999999999778 ) ;
#75 = VERTEX_POINT ( 'NONE', #199 ) ;
#76 = DIRECTION ( 'NONE',  ( -0.000000000000000000, -0.000000000000000000, -1.000000000000000000 ) ) ;
#77 = EDGE_LOOP ( 'NONE', ( #235, #192 ) ) ;
#78 = DIRECTION ( 'NONE',  ( 1.000000000000000000, 0.000000000000000000, 0.000000000000000000 ) ) ;
#79 = CARTESIAN_POINT ( 'NONE',  ( 0.8499999999999999778, 1.040949779275250140E-16, 1.500000000000000000 ) ) ;
#80 = LINE ( 'NONE', #37, #23 ) ;
#81 = ORIENTED_EDGE ( 'NONE', *, *, #153, .F. ) ;
#82 = ORIENTED_EDGE ( 'NONE', *, *, #64, .F. ) ;
#83 = ADVANCED_FACE ( 'NONE', ( #30 ), #74, .T. ) ;
#84 = SECURITY_CLASSIFICATION_LEVEL ( 'unclassified' ) ;
#85 = PERSON_AND_ORGANIZATION ( #123, #71 ) ;
#86 = AXIS2_PLACEMENT_3D ( 'NONE', #10, #120, #106 ) ;
#87 = CIRCLE ( 'NONE', #95, 0.8499999999999999778 ) ;
#88 = CARTESIAN_POINT ( 'NONE',  ( -0.8499999999999999778, 0.000000000000000000, 1.500000000000000000 ) ) ;
#89 = FACE_OUTER_BOUND ( 'NONE', #72, .T. ) ;
#90 = DATE_AND_TIME ( #51, #18 ) ;
#91 = APPROVAL ( #242, 'NEURÈENÝ' ) ;
#92 = DIRECTION ( 'NONE',  ( 1.000000000000000000, 0.000000000000000000, -0.000000000000000000 ) ) ;
#93 = ADVANCED_BREP_SHAPE_REPRESENTATION ( 'f5c7', ( #254, #240 ), #138 ) ;
#94 = VECTOR ( 'NONE', #193, 1000.000000000000000 ) ;
#95 = AXIS2_PLACEMENT_3D ( 'NONE', #134, #118, #17 ) ;
#96 = PERSON_AND_ORGANIZATION ( #123, #71 ) ;
#97 = APPROVAL_ROLE ( '' ) ;
#98 = DIRECTION ( 'NONE',  ( 1.000000000000000000, 0.000000000000000000, -0.000000000000000000 ) ) ;
#99 = EDGE_CURVE ( 'NONE', #215, #24, #115, .T. ) ;
#100 = DIRECTION ( 'NONE',  ( 0.000000000000000000, 0.000000000000000000, 1.000000000000000000 ) ) ;
#101 = CARTESIAN_POINT ( 'NONE',  ( -0.8499999999999999778, 0.000000000000000000, 100.0000000000000000 ) ) ;
#102 = VERTEX_POINT ( 'NONE', #219 ) ;
#103 = DIRECTION ( 'NONE',  ( 0.000000000000000000, 0.000000000000000000, 1.000000000000000000 ) ) ;
#104 = ORIENTED_EDGE ( 'NONE', *, *, #65, .F. ) ;
#105 = CARTESIAN_POINT ( 'NONE',  ( 0.000000000000000000, 0.000000000000000000, 1.500000000000000000 ) ) ;
#106 = DIRECTION ( 'NONE',  ( -1.000000000000000000, 0.000000000000000000, 0.000000000000000000 ) ) ;
#107 = APPROVAL_DATE_TIME ( #150, #91 ) ;
#108 = ORIENTED_EDGE ( 'NONE', *, *, #255, .T. ) ;
#109 = ORIENTED_EDGE ( 'NONE', *, *, #112, .F. ) ;
#110 = CLOSED_SHELL ( 'NONE', ( #83, #33, #179, #9, #62, #213, #135 ) ) ;
#111 = FACE_BOUND ( 'NONE', #190, .T. ) ;
#112 = EDGE_CURVE ( 'NONE', #75, #154, #48, .T. ) ;
#113 = CC_DESIGN_PERSON_AND_ORGANIZATION_ASSIGNMENT ( #26, #241, ( #208 ) ) ;
#114 = DATE_AND_TIME ( #224, #225 ) ;
#115 = LINE ( 'NONE', #244, #180 ) ;
#116 = CC_DESIGN_DATE_AND_TIME_ASSIGNMENT ( #114, #220, ( #8 ) ) ;
#117 = PERSON_AND_ORGANIZATION_ROLE ( 'design_owner' ) ;
#118 = DIRECTION ( 'NONE',  ( 0.000000000000000000, 0.000000000000000000, 1.000000000000000000 ) ) ;
#119 = CC_DESIGN_SECURITY_CLASSIFICATION ( #207, ( #208 ) ) ;
#120 = DIRECTION ( 'NONE',  ( -0.000000000000000000, -0.000000000000000000, -1.000000000000000000 ) ) ;
#121 = COORDINATED_UNIVERSAL_TIME_OFFSET ( 1, 0, .AHEAD. ) ;
#122 = AXIS2_PLACEMENT_3D ( 'NONE', #133, #76, #32 ) ;
#123 = PERSON ( 'NEURÈENÝ', 'NEURÈENÝ', 'NEURÈENÝ', ('NEURÈENÝ'), ('NEURÈENÝ'), ('NEURÈENÝ') ) ;
#124 = DESIGN_CONTEXT ( 'detailed design', #69, 'design' ) ;
#125 = CC_DESIGN_PERSON_AND_ORGANIZATION_ASSIGNMENT ( #96, #29, ( #208 ) ) ;
#126 = ORIENTED_EDGE ( 'NONE', *, *, #164, .F. ) ;
#127 = CIRCLE ( 'NONE', #195, 2.000000000000000000 ) ;
#128 = CALENDAR_DATE ( 2023, 12, 2 ) ;
#129 = APPLICATION_PROTOCOL_DEFINITION ( 'international standard', 'config_control_design', 1994, #69 ) ;
#130 = DIRECTION ( 'NONE',  ( 0.000000000000000000, 0.000000000000000000, 1.000000000000000000 ) ) ;
#131 = ORIENTED_EDGE ( 'NONE', *, *, #203, .F. ) ;
#132 = APPROVAL_ROLE ( '' ) ;
#133 = CARTESIAN_POINT ( 'NONE',  ( 0.000000000000000000, 0.000000000000000000, 100.0000000000000000 ) ) ;
#134 = CARTESIAN_POINT ( 'NONE',  ( 0.000000000000000000, 0.000000000000000000, 100.0000000000000000 ) ) ;
#135 = ADVANCED_FACE ( 'NONE', ( #191 ), #228, .T. ) ;
#136 = APPROVAL_PERSON_ORGANIZATION ( #202, #91, #97 ) ;
#137 = CARTESIAN_POINT ( 'NONE',  ( 0.000000000000000000, 0.000000000000000000, 0.000000000000000000 ) ) ;
#138 =( GEOMETRIC_REPRESENTATION_CONTEXT ( 3 ) GLOBAL_UNCERTAINTY_ASSIGNED_CONTEXT ( ( #217 ) ) GLOBAL_UNIT_ASSIGNED_CONTEXT ( ( #176, #14, #63 ) ) REPRESENTATION_CONTEXT ( 'NONE', 'WORKASPACE' ) );
#139 = CARTESIAN_POINT ( 'NONE',  ( 0.000000000000000000, 0.000000000000000000, 1.500000000000000000 ) ) ;
#140 = DIRECTION ( 'NONE',  ( 1.000000000000000000, 0.000000000000000000, 0.000000000000000000 ) ) ;
#141 = DIRECTION ( 'NONE',  ( 1.000000000000000000, 0.000000000000000000, 0.000000000000000000 ) ) ;
#142 = EDGE_LOOP ( 'NONE', ( #81, #82, #204, #108 ) ) ;
#143 = PERSON_AND_ORGANIZATION ( #123, #71 ) ;
#144 = APPROVAL ( #19, 'NEURÈENÝ' ) ;
#145 = DIRECTION ( 'NONE',  ( 0.000000000000000000, 0.000000000000000000, 1.000000000000000000 ) ) ;
#146 = AXIS2_PLACEMENT_3D ( 'NONE', #231, #103, #205 ) ;
#147 = PLANE ( 'NONE',  #238 ) ;
#148 = APPROVAL_ROLE ( '' ) ;
#149 = CARTESIAN_POINT ( 'NONE',  ( -2.000000000000000000, 0.000000000000000000, 0.000000000000000000 ) ) ;
#150 = DATE_AND_TIME ( #152, #216 ) ;
#151 = ORIENTED_EDGE ( 'NONE', *, *, #52, .F. ) ;
#152 = CALENDAR_DATE ( 2023, 12, 2 ) ;
#153 = EDGE_CURVE ( 'NONE', #46, #102, #61, .T. ) ;
#154 = VERTEX_POINT ( 'NONE', #79 ) ;
#155 = AXIS2_PLACEMENT_3D ( 'NONE', #139, #174, #78 ) ;
#156 = ORIENTED_EDGE ( 'NONE', *, *, #52, .T. ) ;
#157 = CARTESIAN_POINT ( 'NONE',  ( 0.000000000000000000, 0.000000000000000000, 0.000000000000000000 ) ) ;
#158 = FACE_OUTER_BOUND ( 'NONE', #159, .T. ) ;
#159 = EDGE_LOOP ( 'NONE', ( #109, #12, #156, #212 ) ) ;
#160 = APPROVAL_PERSON_ORGANIZATION ( #85, #210, #132 ) ;
#161 = PERSON_AND_ORGANIZATION_ROLE ( 'classification_officer' ) ;
#162 = PERSON_AND_ORGANIZATION_ROLE ( 'creator' ) ;
#163 = AXIS2_PLACEMENT_3D ( 'NONE', #169, #130, #239 ) ;
#164 = EDGE_CURVE ( 'NONE', #46, #215, #68, .T. ) ;
#165 = DIRECTION ( 'NONE',  ( 0.000000000000000000, 0.000000000000000000, 1.000000000000000000 ) ) ;
#166 = SHAPE_DEFINITION_REPRESENTATION ( #28, #93 ) ;
#167 = FACE_OUTER_BOUND ( 'NONE', #175, .T. ) ;
#168 = APPROVAL_PERSON_ORGANIZATION ( #49, #144, #148 ) ;
#169 = CARTESIAN_POINT ( 'NONE',  ( 0.000000000000000000, 0.000000000000000000, 1.500000000000000000 ) ) ;
#170 = CC_DESIGN_DATE_AND_TIME_ASSIGNMENT ( #90, #67, ( #207 ) ) ;
#171 = COORDINATED_UNIVERSAL_TIME_OFFSET ( 1, 0, .AHEAD. ) ;
#172 = CARTESIAN_POINT ( 'NONE',  ( 0.000000000000000000, 0.000000000000000000, 1.500000000000000000 ) ) ;
#173 = CC_DESIGN_PERSON_AND_ORGANIZATION_ASSIGNMENT ( #60, #117, ( #182 ) ) ;
#174 = DIRECTION ( 'NONE',  ( 0.000000000000000000, 0.000000000000000000, 1.000000000000000000 ) ) ;
#175 = EDGE_LOOP ( 'NONE', ( #126, #196, #188, #20 ) ) ;
#176 =( LENGTH_UNIT ( ) NAMED_UNIT ( * ) SI_UNIT ( .MILLI., .METRE. ) );
#177 = VECTOR ( 'NONE', #246, 1000.000000000000000 ) ;
#178 = CYLINDRICAL_SURFACE ( 'NONE', #226, 2.000000000000000000 ) ;
#179 = ADVANCED_FACE ( 'NONE', ( #38 ), #178, .T. ) ;
#180 = VECTOR ( 'NONE', #4, 1000.000000000000000 ) ;
#181 = CIRCLE ( 'NONE', #2, 2.000000000000000000 ) ;
#182 = PRODUCT ( 'f5c7', 'f5c7', '', ( #70 ) ) ;
#183 = CARTESIAN_POINT ( 'NONE',  ( 0.000000000000000000, 0.000000000000000000, 1.500000000000000000 ) ) ;
#184 = APPROVAL_DATE_TIME ( #25, #144 ) ;
#185 = CC_DESIGN_PERSON_AND_ORGANIZATION_ASSIGNMENT ( #198, #162, ( #8 ) ) ;
#186 = DIRECTION ( 'NONE',  ( 0.000000000000000000, 0.000000000000000000, 1.000000000000000000 ) ) ;
#187 = ORIENTED_EDGE ( 'NONE', *, *, #64, .T. ) ;
#188 = ORIENTED_EDGE ( 'NONE', *, *, #253, .T. ) ;
#189 = CALENDAR_DATE ( 2023, 12, 2 ) ;
#190 = EDGE_LOOP ( 'NONE', ( #104, #21 ) ) ;
#191 = FACE_OUTER_BOUND ( 'NONE', #57, .T. ) ;
#192 = ORIENTED_EDGE ( 'NONE', *, *, #253, .F. ) ;
#193 = DIRECTION ( 'NONE',  ( -0.000000000000000000, -0.000000000000000000, -1.000000000000000000 ) ) ;
#194 = EDGE_LOOP ( 'NONE', ( #131, #197, #243, #151 ) ) ;
#195 = AXIS2_PLACEMENT_3D ( 'NONE', #172, #100, #206 ) ;
#196 = ORIENTED_EDGE ( 'NONE', *, *, #153, .T. ) ;
#197 = ORIENTED_EDGE ( 'NONE', *, *, #112, .T. ) ;
#198 = PERSON_AND_ORGANIZATION ( #123, #71 ) ;
#199 = CARTESIAN_POINT ( 'NONE',  ( 0.8499999999999999778, 1.040949779275250140E-16, 100.0000000000000000 ) ) ;
#200 = CIRCLE ( 'NONE', #55, 0.8499999999999999778 ) ;
#201 = AXIS2_PLACEMENT_3D ( 'NONE', #137, #36, #250 ) ;
#202 = PERSON_AND_ORGANIZATION ( #123, #71 ) ;
#203 = EDGE_CURVE ( 'NONE', #75, #233, #87, .T. ) ;
#204 = ORIENTED_EDGE ( 'NONE', *, *, #99, .T. ) ;
#205 = DIRECTION ( 'NONE',  ( 1.000000000000000000, 0.000000000000000000, -0.000000000000000000 ) ) ;
#206 = DIRECTION ( 'NONE',  ( 1.000000000000000000, 0.000000000000000000, 0.000000000000000000 ) ) ;
#207 = SECURITY_CLASSIFICATION ( '', '', #84 ) ;
#208 = PRODUCT_DEFINITION_FORMATION_WITH_SPECIFIED_SOURCE ( 'LIBOVOLNÝ', '', #182, .NOT_KNOWN. ) ;
#209 = ORIENTED_EDGE ( 'NONE', *, *, #164, .T. ) ;
#210 = APPROVAL ( #223, 'NEURÈENÝ' ) ;
#211 = DIRECTION ( 'NONE',  ( 1.000000000000000000, 0.000000000000000000, 0.000000000000000000 ) ) ;
#212 = ORIENTED_EDGE ( 'NONE', *, *, #65, .T. ) ;
#213 = ADVANCED_FACE ( 'NONE', ( #158 ), #35, .T. ) ;
#214 = COORDINATED_UNIVERSAL_TIME_OFFSET ( 1, 0, .AHEAD. ) ;
#215 = VERTEX_POINT ( 'NONE', #251 ) ;
#216 = LOCAL_TIME ( 13, 55, 33.00000000000000000, #171 ) ;
#217 = UNCERTAINTY_MEASURE_WITH_UNIT (LENGTH_MEASURE( 1.000000000000000082E-05 ), #176, 'distance_accuracy_value', 'NONE');
#218 = ORIENTED_EDGE ( 'NONE', *, *, #45, .T. ) ;
#219 = CARTESIAN_POINT ( 'NONE',  ( 2.000000000000000000, 2.449293598294706414E-16, 0.000000000000000000 ) ) ;
#220 = DATE_TIME_ROLE ( 'creation_date' ) ;
#221 = FACE_OUTER_BOUND ( 'NONE', #77, .T. ) ;
#222 = CYLINDRICAL_SURFACE ( 'NONE', #6, 2.000000000000000000 ) ;
#223 = APPROVAL_STATUS ( 'not_yet_approved' ) ;
#224 = CALENDAR_DATE ( 2023, 12, 2 ) ;
#225 = LOCAL_TIME ( 13, 55, 33.00000000000000000, #66 ) ;
#226 = AXIS2_PLACEMENT_3D ( 'NONE', #54, #230, #39 ) ;
#227 = CARTESIAN_POINT ( 'NONE',  ( 0.000000000000000000, 0.000000000000000000, 0.000000000000000000 ) ) ;
#228 = PLANE ( 'NONE',  #146 ) ;
#229 = DIRECTION ( 'NONE',  ( 0.000000000000000000, 0.000000000000000000, 1.000000000000000000 ) ) ;
#230 = DIRECTION ( 'NONE',  ( -0.000000000000000000, -0.000000000000000000, -1.000000000000000000 ) ) ;
#231 = CARTESIAN_POINT ( 'NONE',  ( 0.000000000000000000, 0.000000000000000000, 100.0000000000000000 ) ) ;
#232 = AXIS2_PLACEMENT_3D ( 'NONE', #227, #186, #98 ) ;
#233 = VERTEX_POINT ( 'NONE', #101 ) ;
#234 = AXIS2_PLACEMENT_3D ( 'NONE', #105, #247, #141 ) ;
#235 = ORIENTED_EDGE ( 'NONE', *, *, #255, .F. ) ;
#236 = EDGE_CURVE ( 'NONE', #154, #1, #56, .T. ) ;
#237 = PRODUCT_RELATED_PRODUCT_CATEGORY ( 'detail', '', ( #182 ) ) ;
#238 = AXIS2_PLACEMENT_3D ( 'NONE', #183, #165, #92 ) ;
#239 = DIRECTION ( 'NONE',  ( 1.000000000000000000, 0.000000000000000000, 0.000000000000000000 ) ) ;
#240 = AXIS2_PLACEMENT_3D ( 'NONE', #252, #145, #44 ) ;
#241 = PERSON_AND_ORGANIZATION_ROLE ( 'creator' ) ;
#242 = APPROVAL_STATUS ( 'not_yet_approved' ) ;
#243 = ORIENTED_EDGE ( 'NONE', *, *, #236, .T. ) ;
#244 = CARTESIAN_POINT ( 'NONE',  ( -2.000000000000000000, 0.000000000000000000, 1.500000000000000000 ) ) ;
#245 = PLANE ( 'NONE',  #232 ) ;
#246 = DIRECTION ( 'NONE',  ( -0.000000000000000000, -0.000000000000000000, -1.000000000000000000 ) ) ;
#247 = DIRECTION ( 'NONE',  ( 0.000000000000000000, 0.000000000000000000, 1.000000000000000000 ) ) ;
#248 = DIRECTION ( 'NONE',  ( 0.000000000000000000, 0.000000000000000000, 1.000000000000000000 ) ) ;
#249 = CIRCLE ( 'NONE', #201, 2.000000000000000000 ) ;
#250 = DIRECTION ( 'NONE',  ( 1.000000000000000000, 0.000000000000000000, 0.000000000000000000 ) ) ;
#251 = CARTESIAN_POINT ( 'NONE',  ( -2.000000000000000000, 0.000000000000000000, 1.500000000000000000 ) ) ;
#252 = CARTESIAN_POINT ( 'NONE',  ( 0.000000000000000000, 0.000000000000000000, 0.000000000000000000 ) ) ;
#253 = EDGE_CURVE ( 'NONE', #102, #24, #181, .T. ) ;
#254 = MANIFOLD_SOLID_BREP ( 'Pøidat vysunutím3', #110 ) ;
#255 = EDGE_CURVE ( 'NONE', #24, #102, #249, .T. ) ;
ENDSEC;
END-ISO-10303-21;
