ISO-10303-21;
HEADER;
FILE_DESCRIPTION (( 'STEP AP203' ),
    '1' );
FILE_NAME ('7b2e.STEP',
    '2023-02-12T11:24:29',
    ( '' ),
    ( '' ),
    'SwSTEP 2.0',
    'SolidWorks 2019',
    '' );
FILE_SCHEMA (( 'CONFIG_CONTROL_DESIGN' ));
ENDSEC;

DATA;
#1 = CALENDAR_DATE ( 2023, 12, 2 ) ;
#2 = ORIENTED_EDGE ( 'NONE', *, *, #25, .F. ) ;
#3 = CIRCLE ( 'NONE', #210, 5.100000000000001421 ) ;
#4 = ORIENTED_EDGE ( 'NONE', *, *, #216, .T. ) ;
#5 = FACE_OUTER_BOUND ( 'NONE', #192, .T. ) ;
#6 = EDGE_CURVE ( 'NONE', #125, #106, #134, .T. ) ;
#7 = DIRECTION ( 'NONE',  ( 1.000000000000000000, 0.000000000000000000, 0.000000000000000000 ) ) ;
#8 = ORGANIZATION ( 'NEURÈENÝ', 'NEURÈENÝ', '' ) ;
#9 = DIRECTION ( 'NONE',  ( 0.000000000000000000, 0.000000000000000000, 1.000000000000000000 ) ) ;
#10 = DIRECTION ( 'NONE',  ( 1.000000000000000000, 0.000000000000000000, 0.000000000000000000 ) ) ;
#11 = CARTESIAN_POINT ( 'NONE',  ( 8.000000000000000000, 9.797174393178825657E-16, 0.000000000000000000 ) ) ;
#12 = ADVANCED_FACE ( 'NONE', ( #132 ), #50, .T. ) ;
#13 = FACE_BOUND ( 'NONE', #166, .T. ) ;
#14 = FACE_OUTER_BOUND ( 'NONE', #152, .T. ) ;
#15 = EDGE_CURVE ( 'NONE', #181, #30, #163, .T. ) ;
#16 = ORIENTED_EDGE ( 'NONE', *, *, #87, .F. ) ;
#17 = AXIS2_PLACEMENT_3D ( 'NONE', #171, #51, #189 ) ;
#18 = COORDINATED_UNIVERSAL_TIME_OFFSET ( 1, 0, .AHEAD. ) ;
#19 = CC_DESIGN_PERSON_AND_ORGANIZATION_ASSIGNMENT ( #241, #70, ( #147 ) ) ;
#20 = CARTESIAN_POINT ( 'NONE',  ( -8.000000000000000000, 0.000000000000000000, 0.000000000000000000 ) ) ;
#21 = APPLICATION_PROTOCOL_DEFINITION ( 'international standard', 'config_control_design', 1994, #250 ) ;
#22 = CALENDAR_DATE ( 2023, 12, 2 ) ;
#23 = ADVANCED_BREP_SHAPE_REPRESENTATION ( '7b2e', ( #57, #90 ), #29 ) ;
#24 = CARTESIAN_POINT ( 'NONE',  ( 5.100000000000001421, 6.245698675651502811E-16, 5.000000000000000000 ) ) ;
#25 = EDGE_CURVE ( 'NONE', #125, #127, #3, .T. ) ;
#26 = PERSON ( 'NEURÈENÝ', 'NEURÈENÝ', 'NEURÈENÝ', ('NEURÈENÝ'), ('NEURÈENÝ'), ('NEURÈENÝ') ) ;
#27 = LINE ( 'NONE', #165, #119 ) ;
#28 = CARTESIAN_POINT ( 'NONE',  ( 5.100000000000001421, 6.245698675651502811E-16, 315.0000000000000000 ) ) ;
#29 =( GEOMETRIC_REPRESENTATION_CONTEXT ( 3 ) GLOBAL_UNCERTAINTY_ASSIGNED_CONTEXT ( ( #149 ) ) GLOBAL_UNIT_ASSIGNED_CONTEXT ( ( #55, #208, #167 ) ) REPRESENTATION_CONTEXT ( 'NONE', 'WORKASPACE' ) );
#30 = VERTEX_POINT ( 'NONE', #20 ) ;
#31 = CARTESIAN_POINT ( 'NONE',  ( 0.000000000000000000, 0.000000000000000000, 0.000000000000000000 ) ) ;
#32 = CC_DESIGN_DATE_AND_TIME_ASSIGNMENT ( #237, #89, ( #147 ) ) ;
#33 = ORIENTED_EDGE ( 'NONE', *, *, #15, .T. ) ;
#34 = EDGE_CURVE ( 'NONE', #127, #214, #157, .T. ) ;
#35 = VERTEX_POINT ( 'NONE', #212 ) ;
#36 = FACE_OUTER_BOUND ( 'NONE', #92, .T. ) ;
#37 = LOCAL_TIME ( 12, 24, 29.00000000000000000, #222 ) ;
#38 = CC_DESIGN_SECURITY_CLASSIFICATION ( #147, ( #190 ) ) ;
#39 = EDGE_CURVE ( 'NONE', #214, #106, #65, .T. ) ;
#40 = APPROVAL_DATE_TIME ( #62, #60 ) ;
#41 = ORIENTED_EDGE ( 'NONE', *, *, #25, .T. ) ;
#42 = VECTOR ( 'NONE', #202, 1000.000000000000000 ) ;
#43 = APPLICATION_CONTEXT ( 'configuration controlled 3d designs of mechanical parts and assemblies' ) ;
#44 = DIRECTION ( 'NONE',  ( 0.000000000000000000, 0.000000000000000000, 1.000000000000000000 ) ) ;
#45 = ADVANCED_FACE ( 'NONE', ( #82 ), #124, .T. ) ;
#46 = ORIENTED_EDGE ( 'NONE', *, *, #6, .F. ) ;
#47 = ORIENTED_EDGE ( 'NONE', *, *, #64, .T. ) ;
#48 = MECHANICAL_CONTEXT ( 'NONE', #43, 'mechanical' ) ;
#49 = ADVANCED_FACE ( 'NONE', ( #5 ), #72, .T. ) ;
#50 = CYLINDRICAL_SURFACE ( 'NONE', #144, 5.100000000000001421 ) ;
#51 = DIRECTION ( 'NONE',  ( -0.000000000000000000, -0.000000000000000000, -1.000000000000000000 ) ) ;
#52 = ORIENTED_EDGE ( 'NONE', *, *, #232, .T. ) ;
#53 = CARTESIAN_POINT ( 'NONE',  ( 0.000000000000000000, 0.000000000000000000, 315.0000000000000000 ) ) ;
#54 = PLANE ( 'NONE',  #140 ) ;
#55 =( LENGTH_UNIT ( ) NAMED_UNIT ( * ) SI_UNIT ( .MILLI., .METRE. ) );
#56 = AXIS2_PLACEMENT_3D ( 'NONE', #182, #122, #145 ) ;
#57 = MANIFOLD_SOLID_BREP ( 'Pøidat vysunutím3', #75 ) ;
#58 = CARTESIAN_POINT ( 'NONE',  ( 0.000000000000000000, 0.000000000000000000, 5.000000000000000000 ) ) ;
#59 = DATE_TIME_ROLE ( 'creation_date' ) ;
#60 = APPROVAL ( #160, 'NEURÈENÝ' ) ;
#61 = APPROVAL_STATUS ( 'not_yet_approved' ) ;
#62 = DATE_AND_TIME ( #234, #85 ) ;
#63 = SHAPE_DEFINITION_REPRESENTATION ( #77, #23 ) ;
#64 = EDGE_CURVE ( 'NONE', #35, #30, #27, .T. ) ;
#65 = CIRCLE ( 'NONE', #238, 5.100000000000001421 ) ;
#66 = APPROVAL_STATUS ( 'not_yet_approved' ) ;
#67 = AXIS2_PLACEMENT_3D ( 'NONE', #153, #116, #203 ) ;
#68 = EDGE_LOOP ( 'NONE', ( #2, #242, #245, #71 ) ) ;
#69 = CARTESIAN_POINT ( 'NONE',  ( 8.000000000000000000, 9.797174393178825657E-16, 5.000000000000000000 ) ) ;
#70 = PERSON_AND_ORGANIZATION_ROLE ( 'classification_officer' ) ;
#71 = ORIENTED_EDGE ( 'NONE', *, *, #34, .F. ) ;
#72 = CYLINDRICAL_SURFACE ( 'NONE', #226, 8.000000000000000000 ) ;
#73 = CC_DESIGN_DATE_AND_TIME_ASSIGNMENT ( #161, #59, ( #117 ) ) ;
#74 = ORIENTED_EDGE ( 'NONE', *, *, #240, .F. ) ;
#75 = CLOSED_SHELL ( 'NONE', ( #224, #45, #49, #254, #108, #12, #191 ) ) ;
#76 = PERSON_AND_ORGANIZATION_ROLE ( 'design_supplier' ) ;
#77 = PRODUCT_DEFINITION_SHAPE ( 'NONE', 'NONE',  #117 ) ;
#78 = APPLICATION_PROTOCOL_DEFINITION ( 'international standard', 'config_control_design', 1994, #43 ) ;
#79 = CIRCLE ( 'NONE', #109, 5.100000000000001421 ) ;
#80 = DIRECTION ( 'NONE',  ( 0.000000000000000000, 0.000000000000000000, 1.000000000000000000 ) ) ;
#81 = DIRECTION ( 'NONE',  ( 1.000000000000000000, 0.000000000000000000, -0.000000000000000000 ) ) ;
#82 = FACE_OUTER_BOUND ( 'NONE', #236, .T. ) ;
#83 = APPROVAL_ROLE ( '' ) ;
#84 = PERSON_AND_ORGANIZATION_ROLE ( 'creator' ) ;
#85 = LOCAL_TIME ( 12, 24, 29.00000000000000000, #213 ) ;
#86 = CALENDAR_DATE ( 2023, 12, 2 ) ;
#87 = EDGE_CURVE ( 'NONE', #107, #181, #128, .T. ) ;
#88 = ORIENTED_EDGE ( 'NONE', *, *, #34, .T. ) ;
#89 = DATE_TIME_ROLE ( 'classification_date' ) ;
#90 = AXIS2_PLACEMENT_3D ( 'NONE', #187, #168, #248 ) ;
#91 = ORIENTED_EDGE ( 'NONE', *, *, #240, .T. ) ;
#92 = EDGE_LOOP ( 'NONE', ( #52, #4 ) ) ;
#93 = VECTOR ( 'NONE', #206, 1000.000000000000000 ) ;
#94 = PLANE ( 'NONE',  #133 ) ;
#95 = AXIS2_PLACEMENT_3D ( 'NONE', #252, #131, #10 ) ;
#96 = DIRECTION ( 'NONE',  ( 1.000000000000000000, 0.000000000000000000, 0.000000000000000000 ) ) ;
#97 = DIRECTION ( 'NONE',  ( 1.000000000000000000, 0.000000000000000000, 0.000000000000000000 ) ) ;
#98 = CARTESIAN_POINT ( 'NONE',  ( -5.100000000000001421, 0.000000000000000000, 5.000000000000000000 ) ) ;
#99 = DIRECTION ( 'NONE',  ( -1.000000000000000000, 0.000000000000000000, 0.000000000000000000 ) ) ;
#100 = DIRECTION ( 'NONE',  ( 1.000000000000000000, 0.000000000000000000, -0.000000000000000000 ) ) ;
#101 = APPROVAL_PERSON_ORGANIZATION ( #102, #196, #231 ) ;
#102 = PERSON_AND_ORGANIZATION ( #26, #8 ) ;
#103 = CC_DESIGN_PERSON_AND_ORGANIZATION_ASSIGNMENT ( #118, #76, ( #190 ) ) ;
#104 = LOCAL_TIME ( 12, 24, 29.00000000000000000, #180 ) ;
#105 = APPROVAL_ROLE ( '' ) ;
#106 = VERTEX_POINT ( 'NONE', #24 ) ;
#107 = VERTEX_POINT ( 'NONE', #146 ) ;
#108 = ADVANCED_FACE ( 'NONE', ( #130 ), #126, .F. ) ;
#109 = AXIS2_PLACEMENT_3D ( 'NONE', #243, #112, #246 ) ;
#110 = ORIENTED_EDGE ( 'NONE', *, *, #15, .F. ) ;
#111 = DESIGN_CONTEXT ( 'detailed design', #250, 'design' ) ;
#112 = DIRECTION ( 'NONE',  ( 0.000000000000000000, 0.000000000000000000, 1.000000000000000000 ) ) ;
#113 = CYLINDRICAL_SURFACE ( 'NONE', #17, 5.100000000000001421 ) ;
#114 = CARTESIAN_POINT ( 'NONE',  ( 5.100000000000001421, 6.245698675651502811E-16, 315.0000000000000000 ) ) ;
#115 = CARTESIAN_POINT ( 'NONE',  ( 0.000000000000000000, 0.000000000000000000, 315.0000000000000000 ) ) ;
#116 = DIRECTION ( 'NONE',  ( 0.000000000000000000, 0.000000000000000000, 1.000000000000000000 ) ) ;
#117 = PRODUCT_DEFINITION ( 'NEZNÁMÝ', '', #190, #111 ) ;
#118 = PERSON_AND_ORGANIZATION ( #26, #8 ) ;
#119 = VECTOR ( 'NONE', #219, 1000.000000000000000 ) ;
#120 = APPROVAL_PERSON_ORGANIZATION ( #184, #229, #105 ) ;
#121 = DIRECTION ( 'NONE',  ( -0.000000000000000000, -0.000000000000000000, -1.000000000000000000 ) ) ;
#122 = DIRECTION ( 'NONE',  ( -0.000000000000000000, -0.000000000000000000, -1.000000000000000000 ) ) ;
#123 = ORIENTED_EDGE ( 'NONE', *, *, #39, .F. ) ;
#124 = CYLINDRICAL_SURFACE ( 'NONE', #56, 8.000000000000000000 ) ;
#125 = VERTEX_POINT ( 'NONE', #28 ) ;
#126 = PLANE ( 'NONE',  #244 ) ;
#127 = VERTEX_POINT ( 'NONE', #185 ) ;
#128 = LINE ( 'NONE', #69, #42 ) ;
#129 = DIRECTION ( 'NONE',  ( 0.000000000000000000, 0.000000000000000000, 1.000000000000000000 ) ) ;
#130 = FACE_OUTER_BOUND ( 'NONE', #239, .T. ) ;
#131 = DIRECTION ( 'NONE',  ( 0.000000000000000000, 0.000000000000000000, 1.000000000000000000 ) ) ;
#132 = FACE_OUTER_BOUND ( 'NONE', #139, .T. ) ;
#133 = AXIS2_PLACEMENT_3D ( 'NONE', #53, #135, #100 ) ;
#134 = LINE ( 'NONE', #114, #93 ) ;
#135 = DIRECTION ( 'NONE',  ( 0.000000000000000000, 0.000000000000000000, 1.000000000000000000 ) ) ;
#136 = CIRCLE ( 'NONE', #211, 8.000000000000000000 ) ;
#137 = DIRECTION ( 'NONE',  ( 1.000000000000000000, 0.000000000000000000, 0.000000000000000000 ) ) ;
#138 = COORDINATED_UNIVERSAL_TIME_OFFSET ( 1, 0, .AHEAD. ) ;
#139 = EDGE_LOOP ( 'NONE', ( #46, #74, #88, #197 ) ) ;
#140 = AXIS2_PLACEMENT_3D ( 'NONE', #170, #228, #81 ) ;
#141 = APPROVAL_DATE_TIME ( #172, #196 ) ;
#142 = ORIENTED_EDGE ( 'NONE', *, *, #159, .T. ) ;
#143 = CARTESIAN_POINT ( 'NONE',  ( 0.000000000000000000, 0.000000000000000000, 0.000000000000000000 ) ) ;
#144 = AXIS2_PLACEMENT_3D ( 'NONE', #115, #207, #99 ) ;
#145 = DIRECTION ( 'NONE',  ( -1.000000000000000000, 0.000000000000000000, 0.000000000000000000 ) ) ;
#146 = CARTESIAN_POINT ( 'NONE',  ( 8.000000000000000000, 9.797174393178825657E-16, 5.000000000000000000 ) ) ;
#147 = SECURITY_CLASSIFICATION ( '', '', #220 ) ;
#148 = ORIENTED_EDGE ( 'NONE', *, *, #159, .F. ) ;
#149 = UNCERTAINTY_MEASURE_WITH_UNIT (LENGTH_MEASURE( 1.000000000000000082E-05 ), #55, 'distance_accuracy_value', 'NONE');
#150 = DIRECTION ( 'NONE',  ( 0.000000000000000000, 0.000000000000000000, 1.000000000000000000 ) ) ;
#151 = CC_DESIGN_APPROVAL ( #229, ( #147 ) ) ;
#152 = EDGE_LOOP ( 'NONE', ( #91, #41 ) ) ;
#153 = CARTESIAN_POINT ( 'NONE',  ( 0.000000000000000000, 0.000000000000000000, 5.000000000000000000 ) ) ;
#154 = DIRECTION ( 'NONE',  ( -0.000000000000000000, -0.000000000000000000, -1.000000000000000000 ) ) ;
#155 = CIRCLE ( 'NONE', #67, 8.000000000000000000 ) ;
#156 = EDGE_CURVE ( 'NONE', #106, #214, #79, .T. ) ;
#157 = LINE ( 'NONE', #230, #173 ) ;
#158 = PERSON_AND_ORGANIZATION ( #26, #8 ) ;
#159 = EDGE_CURVE ( 'NONE', #30, #181, #136, .T. ) ;
#160 = APPROVAL_STATUS ( 'not_yet_approved' ) ;
#161 = DATE_AND_TIME ( #1, #178 ) ;
#162 = DATE_AND_TIME ( #86, #104 ) ;
#163 = CIRCLE ( 'NONE', #193, 8.000000000000000000 ) ;
#164 = LOCAL_TIME ( 12, 24, 29.00000000000000000, #18 ) ;
#165 = CARTESIAN_POINT ( 'NONE',  ( -8.000000000000000000, 0.000000000000000000, 5.000000000000000000 ) ) ;
#166 = EDGE_LOOP ( 'NONE', ( #123, #175 ) ) ;
#167 =( NAMED_UNIT ( * ) SI_UNIT ( $, .STERADIAN. ) SOLID_ANGLE_UNIT ( ) );
#168 = DIRECTION ( 'NONE',  ( 0.000000000000000000, 0.000000000000000000, 1.000000000000000000 ) ) ;
#169 = PERSON_AND_ORGANIZATION_ROLE ( 'design_owner' ) ;
#170 = CARTESIAN_POINT ( 'NONE',  ( 0.000000000000000000, 0.000000000000000000, 5.000000000000000000 ) ) ;
#171 = CARTESIAN_POINT ( 'NONE',  ( 0.000000000000000000, 0.000000000000000000, 315.0000000000000000 ) ) ;
#172 = DATE_AND_TIME ( #174, #164 ) ;
#173 = VECTOR ( 'NONE', #154, 1000.000000000000000 ) ;
#174 = CALENDAR_DATE ( 2023, 12, 2 ) ;
#175 = ORIENTED_EDGE ( 'NONE', *, *, #156, .F. ) ;
#176 = AXIS2_PLACEMENT_3D ( 'NONE', #205, #150, #97 ) ;
#177 = ORIENTED_EDGE ( 'NONE', *, *, #64, .F. ) ;
#178 = LOCAL_TIME ( 12, 24, 29.00000000000000000, #138 ) ;
#179 = DIRECTION ( 'NONE',  ( -1.000000000000000000, 0.000000000000000000, 0.000000000000000000 ) ) ;
#180 = COORDINATED_UNIVERSAL_TIME_OFFSET ( 1, 0, .AHEAD. ) ;
#181 = VERTEX_POINT ( 'NONE', #11 ) ;
#182 = CARTESIAN_POINT ( 'NONE',  ( 0.000000000000000000, 0.000000000000000000, 5.000000000000000000 ) ) ;
#183 = CIRCLE ( 'NONE', #176, 8.000000000000000000 ) ;
#184 = PERSON_AND_ORGANIZATION ( #26, #8 ) ;
#185 = CARTESIAN_POINT ( 'NONE',  ( -5.100000000000001421, 0.000000000000000000, 315.0000000000000000 ) ) ;
#186 = PRODUCT_RELATED_PRODUCT_CATEGORY ( 'detail', '', ( #201 ) ) ;
#187 = CARTESIAN_POINT ( 'NONE',  ( 0.000000000000000000, 0.000000000000000000, 0.000000000000000000 ) ) ;
#188 = DIRECTION ( 'NONE',  ( 1.000000000000000000, 0.000000000000000000, 0.000000000000000000 ) ) ;
#189 = DIRECTION ( 'NONE',  ( -1.000000000000000000, 0.000000000000000000, 0.000000000000000000 ) ) ;
#190 = PRODUCT_DEFINITION_FORMATION_WITH_SPECIFIED_SOURCE ( 'LIBOVOLNÝ', '', #201, .NOT_KNOWN. ) ;
#191 = ADVANCED_FACE ( 'NONE', ( #14 ), #94, .T. ) ;
#192 = EDGE_LOOP ( 'NONE', ( #16, #198, #47, #142 ) ) ;
#193 = AXIS2_PLACEMENT_3D ( 'NONE', #251, #129, #7 ) ;
#194 = APPROVAL_PERSON_ORGANIZATION ( #253, #60, #83 ) ;
#195 = CIRCLE ( 'NONE', #95, 5.100000000000001421 ) ;
#196 = APPROVAL ( #61, 'NEURÈENÝ' ) ;
#197 = ORIENTED_EDGE ( 'NONE', *, *, #39, .T. ) ;
#198 = ORIENTED_EDGE ( 'NONE', *, *, #232, .F. ) ;
#199 = DIRECTION ( 'NONE',  ( 1.000000000000000000, 0.000000000000000000, -0.000000000000000000 ) ) ;
#200 = CARTESIAN_POINT ( 'NONE',  ( 0.000000000000000000, 0.000000000000000000, 5.000000000000000000 ) ) ;
#201 = PRODUCT ( '7b2e', '7b2e', '', ( #48 ) ) ;
#202 = DIRECTION ( 'NONE',  ( -0.000000000000000000, -0.000000000000000000, -1.000000000000000000 ) ) ;
#203 = DIRECTION ( 'NONE',  ( 1.000000000000000000, 0.000000000000000000, 0.000000000000000000 ) ) ;
#204 = CC_DESIGN_PERSON_AND_ORGANIZATION_ASSIGNMENT ( #158, #215, ( #190 ) ) ;
#205 = CARTESIAN_POINT ( 'NONE',  ( 0.000000000000000000, 0.000000000000000000, 5.000000000000000000 ) ) ;
#206 = DIRECTION ( 'NONE',  ( -0.000000000000000000, -0.000000000000000000, -1.000000000000000000 ) ) ;
#207 = DIRECTION ( 'NONE',  ( -0.000000000000000000, -0.000000000000000000, -1.000000000000000000 ) ) ;
#208 =( NAMED_UNIT ( * ) PLANE_ANGLE_UNIT ( ) SI_UNIT ( $, .RADIAN. ) );
#209 = CC_DESIGN_PERSON_AND_ORGANIZATION_ASSIGNMENT ( #225, #169, ( #201 ) ) ;
#210 = AXIS2_PLACEMENT_3D ( 'NONE', #247, #9, #96 ) ;
#211 = AXIS2_PLACEMENT_3D ( 'NONE', #31, #80, #188 ) ;
#212 = CARTESIAN_POINT ( 'NONE',  ( -8.000000000000000000, 0.000000000000000000, 5.000000000000000000 ) ) ;
#213 = COORDINATED_UNIVERSAL_TIME_OFFSET ( 1, 0, .AHEAD. ) ;
#214 = VERTEX_POINT ( 'NONE', #98 ) ;
#215 = PERSON_AND_ORGANIZATION_ROLE ( 'creator' ) ;
#216 = EDGE_CURVE ( 'NONE', #107, #35, #155, .T. ) ;
#217 = ORIENTED_EDGE ( 'NONE', *, *, #216, .F. ) ;
#218 = DIRECTION ( 'NONE',  ( 0.000000000000000000, 0.000000000000000000, 1.000000000000000000 ) ) ;
#219 = DIRECTION ( 'NONE',  ( -0.000000000000000000, -0.000000000000000000, -1.000000000000000000 ) ) ;
#220 = SECURITY_CLASSIFICATION_LEVEL ( 'unclassified' ) ;
#221 = CC_DESIGN_APPROVAL ( #60, ( #190 ) ) ;
#222 = COORDINATED_UNIVERSAL_TIME_OFFSET ( 1, 0, .AHEAD. ) ;
#223 = FACE_OUTER_BOUND ( 'NONE', #68, .T. ) ;
#224 = ADVANCED_FACE ( 'NONE', ( #223 ), #113, .T. ) ;
#225 = PERSON_AND_ORGANIZATION ( #26, #8 ) ;
#226 = AXIS2_PLACEMENT_3D ( 'NONE', #200, #121, #179 ) ;
#227 = ORIENTED_EDGE ( 'NONE', *, *, #87, .T. ) ;
#228 = DIRECTION ( 'NONE',  ( 0.000000000000000000, 0.000000000000000000, 1.000000000000000000 ) ) ;
#229 = APPROVAL ( #66, 'NEURÈENÝ' ) ;
#230 = CARTESIAN_POINT ( 'NONE',  ( -5.100000000000001421, 0.000000000000000000, 315.0000000000000000 ) ) ;
#231 = APPROVAL_ROLE ( '' ) ;
#232 = EDGE_CURVE ( 'NONE', #35, #107, #183, .T. ) ;
#233 = CC_DESIGN_APPROVAL ( #196, ( #117 ) ) ;
#234 = CALENDAR_DATE ( 2023, 12, 2 ) ;
#235 = APPROVAL_DATE_TIME ( #162, #229 ) ;
#236 = EDGE_LOOP ( 'NONE', ( #217, #227, #33, #177 ) ) ;
#237 = DATE_AND_TIME ( #22, #37 ) ;
#238 = AXIS2_PLACEMENT_3D ( 'NONE', #58, #44, #137 ) ;
#239 = EDGE_LOOP ( 'NONE', ( #148, #110 ) ) ;
#240 = EDGE_CURVE ( 'NONE', #127, #125, #195, .T. ) ;
#241 = PERSON_AND_ORGANIZATION ( #26, #8 ) ;
#242 = ORIENTED_EDGE ( 'NONE', *, *, #6, .T. ) ;
#243 = CARTESIAN_POINT ( 'NONE',  ( 0.000000000000000000, 0.000000000000000000, 5.000000000000000000 ) ) ;
#244 = AXIS2_PLACEMENT_3D ( 'NONE', #143, #218, #199 ) ;
#245 = ORIENTED_EDGE ( 'NONE', *, *, #156, .T. ) ;
#246 = DIRECTION ( 'NONE',  ( 1.000000000000000000, 0.000000000000000000, 0.000000000000000000 ) ) ;
#247 = CARTESIAN_POINT ( 'NONE',  ( 0.000000000000000000, 0.000000000000000000, 315.0000000000000000 ) ) ;
#248 = DIRECTION ( 'NONE',  ( 1.000000000000000000, 0.000000000000000000, 0.000000000000000000 ) ) ;
#249 = CC_DESIGN_PERSON_AND_ORGANIZATION_ASSIGNMENT ( #255, #84, ( #117 ) ) ;
#250 = APPLICATION_CONTEXT ( 'configuration controlled 3d designs of mechanical parts and assemblies' ) ;
#251 = CARTESIAN_POINT ( 'NONE',  ( 0.000000000000000000, 0.000000000000000000, 0.000000000000000000 ) ) ;
#252 = CARTESIAN_POINT ( 'NONE',  ( 0.000000000000000000, 0.000000000000000000, 315.0000000000000000 ) ) ;
#253 = PERSON_AND_ORGANIZATION ( #26, #8 ) ;
#254 = ADVANCED_FACE ( 'NONE', ( #13, #36 ), #54, .T. ) ;
#255 = PERSON_AND_ORGANIZATION ( #26, #8 ) ;
ENDSEC;
END-ISO-10303-21;
