ISO-10303-21;
HEADER;
FILE_DESCRIPTION (( 'STEP AP203' ),
    '1' );
FILE_NAME ('b8df.STEP',
    '2023-02-12T12:17:50',
    ( '' ),
    ( '' ),
    'SwSTEP 2.0',
    'SolidWorks 2019',
    '' );
FILE_SCHEMA (( 'CONFIG_CONTROL_DESIGN' ));
ENDSEC;

DATA;
#1 = APPLICATION_PROTOCOL_DEFINITION ( 'international standard', 'config_control_design', 1994, #17 ) ;
#2 = LOCAL_TIME ( 13, 17, 50.00000000000000000, #157 ) ;
#3 = PRODUCT ( 'b8df', 'b8df', '', ( #129 ) ) ;
#4 = DIRECTION ( 'NONE',  ( 1.000000000000000000, 0.000000000000000000, -0.000000000000000000 ) ) ;
#5 = ADVANCED_FACE ( 'NONE', ( #161 ), #106, .T. ) ;
#6 = CIRCLE ( 'NONE', #145, 6.000000000000000888 ) ;
#7 = DIRECTION ( 'NONE',  ( 0.000000000000000000, 0.000000000000000000, 1.000000000000000000 ) ) ;
#8 = ORIENTED_EDGE ( 'NONE', *, *, #220, .T. ) ;
#9 = CARTESIAN_POINT ( 'NONE',  ( -3.000000000000000444, 0.000000000000000000, 800.0000000000000000 ) ) ;
#10 = DIRECTION ( 'NONE',  ( -0.000000000000000000, -0.000000000000000000, -1.000000000000000000 ) ) ;
#11 = CARTESIAN_POINT ( 'NONE',  ( 0.000000000000000000, 0.000000000000000000, 800.0000000000000000 ) ) ;
#12 = DIRECTION ( 'NONE',  ( 1.000000000000000000, 0.000000000000000000, 0.000000000000000000 ) ) ;
#13 = ORIENTED_EDGE ( 'NONE', *, *, #147, .T. ) ;
#14 = DESIGN_CONTEXT ( 'detailed design', #17, 'design' ) ;
#15 = ADVANCED_FACE ( 'NONE', ( #47 ), #125, .T. ) ;
#16 = AXIS2_PLACEMENT_3D ( 'NONE', #248, #229, #242 ) ;
#17 = APPLICATION_CONTEXT ( 'configuration controlled 3d designs of mechanical parts and assemblies' ) ;
#18 = PERSON_AND_ORGANIZATION ( #140, #40 ) ;
#19 = DIRECTION ( 'NONE',  ( 0.000000000000000000, 0.000000000000000000, 1.000000000000000000 ) ) ;
#20 = COORDINATED_UNIVERSAL_TIME_OFFSET ( 1, 0, .AHEAD. ) ;
#21 = AXIS2_PLACEMENT_3D ( 'NONE', #159, #236, #217 ) ;
#22 = AXIS2_PLACEMENT_3D ( 'NONE', #253, #19, #173 ) ;
#23 = PLANE ( 'NONE',  #132 ) ;
#24 = DIRECTION ( 'NONE',  ( 0.000000000000000000, 0.000000000000000000, 1.000000000000000000 ) ) ;
#25 = ORIENTED_EDGE ( 'NONE', *, *, #37, .F. ) ;
#26 = CARTESIAN_POINT ( 'NONE',  ( 0.000000000000000000, 0.000000000000000000, 5.000000000000000000 ) ) ;
#27 = CC_DESIGN_APPROVAL ( #182, ( #32 ) ) ;
#28 = ORIENTED_EDGE ( 'NONE', *, *, #115, .T. ) ;
#29 = CARTESIAN_POINT ( 'NONE',  ( 3.000000000000000444, 3.673940397442060361E-16, 800.0000000000000000 ) ) ;
#30 = DIRECTION ( 'NONE',  ( -0.000000000000000000, -0.000000000000000000, -1.000000000000000000 ) ) ;
#31 = CARTESIAN_POINT ( 'NONE',  ( -6.000000000000000888, 0.000000000000000000, 5.000000000000000000 ) ) ;
#32 = PRODUCT_DEFINITION ( 'NEZNÁMÝ', '', #59, #14 ) ;
#33 = SECURITY_CLASSIFICATION ( '', '', #112 ) ;
#34 = APPROVAL_STATUS ( 'not_yet_approved' ) ;
#35 = CALENDAR_DATE ( 2023, 12, 2 ) ;
#36 = PERSON_AND_ORGANIZATION ( #140, #40 ) ;
#37 = EDGE_CURVE ( 'NONE', #116, #184, #6, .T. ) ;
#38 = VECTOR ( 'NONE', #107, 1000.000000000000000 ) ;
#39 = CARTESIAN_POINT ( 'NONE',  ( 0.000000000000000000, 0.000000000000000000, 0.000000000000000000 ) ) ;
#40 = ORGANIZATION ( 'NEURÈENÝ', 'NEURÈENÝ', '' ) ;
#41 = VERTEX_POINT ( 'NONE', #167 ) ;
#42 = CARTESIAN_POINT ( 'NONE',  ( 6.000000000000000888, 7.347880794884120722E-16, 5.000000000000000000 ) ) ;
#43 = CARTESIAN_POINT ( 'NONE',  ( -3.000000000000000444, 0.000000000000000000, 5.000000000000000000 ) ) ;
#44 = CYLINDRICAL_SURFACE ( 'NONE', #105, 3.000000000000000444 ) ;
#45 = CIRCLE ( 'NONE', #237, 3.000000000000000444 ) ;
#46 = CC_DESIGN_PERSON_AND_ORGANIZATION_ASSIGNMENT ( #213, #191, ( #59 ) ) ;
#47 = FACE_OUTER_BOUND ( 'NONE', #183, .T. ) ;
#48 = DIRECTION ( 'NONE',  ( 0.000000000000000000, 0.000000000000000000, 1.000000000000000000 ) ) ;
#49 = ORIENTED_EDGE ( 'NONE', *, *, #175, .F. ) ;
#50 = ORIENTED_EDGE ( 'NONE', *, *, #51, .T. ) ;
#51 = EDGE_CURVE ( 'NONE', #70, #41, #153, .T. ) ;
#52 = PERSON_AND_ORGANIZATION ( #140, #40 ) ;
#53 = LOCAL_TIME ( 13, 17, 50.00000000000000000, #57 ) ;
#54 = CALENDAR_DATE ( 2023, 12, 2 ) ;
#55 = CIRCLE ( 'NONE', #126, 6.000000000000000888 ) ;
#56 = APPROVAL_ROLE ( '' ) ;
#57 = COORDINATED_UNIVERSAL_TIME_OFFSET ( 1, 0, .AHEAD. ) ;
#58 = EDGE_CURVE ( 'NONE', #41, #70, #71, .T. ) ;
#59 = PRODUCT_DEFINITION_FORMATION_WITH_SPECIFIED_SOURCE ( 'LIBOVOLNÝ', '', #3, .NOT_KNOWN. ) ;
#60 = VECTOR ( 'NONE', #200, 1000.000000000000000 ) ;
#61 = CARTESIAN_POINT ( 'NONE',  ( 0.000000000000000000, 0.000000000000000000, 5.000000000000000000 ) ) ;
#62 = ORIENTED_EDGE ( 'NONE', *, *, #110, .F. ) ;
#63 = DIRECTION ( 'NONE',  ( -0.000000000000000000, -0.000000000000000000, -1.000000000000000000 ) ) ;
#64 = PLANE ( 'NONE',  #201 ) ;
#65 = CARTESIAN_POINT ( 'NONE',  ( 0.000000000000000000, 0.000000000000000000, 5.000000000000000000 ) ) ;
#66 = EDGE_LOOP ( 'NONE', ( #49, #138, #50, #141 ) ) ;
#67 = CARTESIAN_POINT ( 'NONE',  ( -3.000000000000000444, 0.000000000000000000, 800.0000000000000000 ) ) ;
#68 = ORIENTED_EDGE ( 'NONE', *, *, #158, .F. ) ;
#69 = CARTESIAN_POINT ( 'NONE',  ( 0.000000000000000000, 0.000000000000000000, 0.000000000000000000 ) ) ;
#70 = VERTEX_POINT ( 'NONE', #208 ) ;
#71 = CIRCLE ( 'NONE', #164, 6.000000000000000888 ) ;
#72 = CALENDAR_DATE ( 2023, 12, 2 ) ;
#73 = PERSON_AND_ORGANIZATION_ROLE ( 'design_owner' ) ;
#74 = CC_DESIGN_DATE_AND_TIME_ASSIGNMENT ( #148, #230, ( #33 ) ) ;
#75 =( NAMED_UNIT ( * ) SI_UNIT ( $, .STERADIAN. ) SOLID_ANGLE_UNIT ( ) );
#76 = PERSON_AND_ORGANIZATION ( #140, #40 ) ;
#77 = EDGE_CURVE ( 'NONE', #116, #41, #221, .T. ) ;
#78 = FACE_OUTER_BOUND ( 'NONE', #88, .T. ) ;
#79 = CARTESIAN_POINT ( 'NONE',  ( 0.000000000000000000, 0.000000000000000000, 5.000000000000000000 ) ) ;
#80 = DIRECTION ( 'NONE',  ( 1.000000000000000000, 0.000000000000000000, 0.000000000000000000 ) ) ;
#81 = EDGE_LOOP ( 'NONE', ( #246, #218 ) ) ;
#82 = APPROVAL_PERSON_ORGANIZATION ( #76, #182, #56 ) ;
#83 = CARTESIAN_POINT ( 'NONE',  ( 0.000000000000000000, 0.000000000000000000, 5.000000000000000000 ) ) ;
#84 = LINE ( 'NONE', #67, #113 ) ;
#85 = CARTESIAN_POINT ( 'NONE',  ( 0.000000000000000000, 0.000000000000000000, 5.000000000000000000 ) ) ;
#86 = DATE_AND_TIME ( #117, #231 ) ;
#87 = FACE_BOUND ( 'NONE', #81, .T. ) ;
#88 = EDGE_LOOP ( 'NONE', ( #166, #103 ) ) ;
#89 = VERTEX_POINT ( 'NONE', #43 ) ;
#90 = AXIS2_PLACEMENT_3D ( 'NONE', #61, #206, #219 ) ;
#91 = APPROVAL ( #170, 'NEURÈENÝ' ) ;
#92 = APPLICATION_PROTOCOL_DEFINITION ( 'international standard', 'config_control_design', 1994, #209 ) ;
#93 = APPROVAL_PERSON_ORGANIZATION ( #18, #91, #131 ) ;
#94 = PERSON_AND_ORGANIZATION ( #140, #40 ) ;
#95 = CC_DESIGN_DATE_AND_TIME_ASSIGNMENT ( #154, #111, ( #32 ) ) ;
#96 = CARTESIAN_POINT ( 'NONE',  ( -6.000000000000000888, 0.000000000000000000, 5.000000000000000000 ) ) ;
#97 = DIRECTION ( 'NONE',  ( 0.000000000000000000, 0.000000000000000000, 1.000000000000000000 ) ) ;
#98 = CIRCLE ( 'NONE', #186, 3.000000000000000444 ) ;
#99 = ADVANCED_FACE ( 'NONE', ( #188 ), #64, .T. ) ;
#100 = FACE_OUTER_BOUND ( 'NONE', #66, .T. ) ;
#101 = EDGE_LOOP ( 'NONE', ( #62, #244, #28, #180 ) ) ;
#102 = CARTESIAN_POINT ( 'NONE',  ( 0.000000000000000000, 0.000000000000000000, 800.0000000000000000 ) ) ;
#103 = ORIENTED_EDGE ( 'NONE', *, *, #175, .T. ) ;
#104 = CARTESIAN_POINT ( 'NONE',  ( 3.000000000000000444, 3.673940397442060361E-16, 5.000000000000000000 ) ) ;
#105 = AXIS2_PLACEMENT_3D ( 'NONE', #102, #181, #123 ) ;
#106 = CYLINDRICAL_SURFACE ( 'NONE', #216, 3.000000000000000444 ) ;
#107 = DIRECTION ( 'NONE',  ( -0.000000000000000000, -0.000000000000000000, -1.000000000000000000 ) ) ;
#108 = UNCERTAINTY_MEASURE_WITH_UNIT (LENGTH_MEASURE( 1.000000000000000082E-05 ), #239, 'distance_accuracy_value', 'NONE');
#109 = APPROVAL_STATUS ( 'not_yet_approved' ) ;
#110 = EDGE_CURVE ( 'NONE', #165, #205, #98, .T. ) ;
#111 = DATE_TIME_ROLE ( 'creation_date' ) ;
#112 = SECURITY_CLASSIFICATION_LEVEL ( 'unclassified' ) ;
#113 = VECTOR ( 'NONE', #142, 1000.000000000000000 ) ;
#114 = FACE_OUTER_BOUND ( 'NONE', #143, .T. ) ;
#115 = EDGE_CURVE ( 'NONE', #226, #89, #133, .T. ) ;
#116 = VERTEX_POINT ( 'NONE', #96 ) ;
#117 = CALENDAR_DATE ( 2023, 12, 2 ) ;
#118 = DIRECTION ( 'NONE',  ( 1.000000000000000000, 0.000000000000000000, 0.000000000000000000 ) ) ;
#119 = AXIS2_PLACEMENT_3D ( 'NONE', #65, #63, #176 ) ;
#120 = DIRECTION ( 'NONE',  ( -1.000000000000000000, 0.000000000000000000, 0.000000000000000000 ) ) ;
#121 = DIRECTION ( 'NONE',  ( 0.000000000000000000, 0.000000000000000000, 1.000000000000000000 ) ) ;
#122 = ORIENTED_EDGE ( 'NONE', *, *, #58, .T. ) ;
#123 = DIRECTION ( 'NONE',  ( -1.000000000000000000, 0.000000000000000000, 0.000000000000000000 ) ) ;
#124 = CC_DESIGN_APPROVAL ( #250, ( #33 ) ) ;
#125 = CYLINDRICAL_SURFACE ( 'NONE', #195, 6.000000000000000888 ) ;
#126 = AXIS2_PLACEMENT_3D ( 'NONE', #26, #121, #80 ) ;
#127 = ORIENTED_EDGE ( 'NONE', *, *, #77, .T. ) ;
#128 = ADVANCED_FACE ( 'NONE', ( #100 ), #160, .T. ) ;
#129 = MECHANICAL_CONTEXT ( 'NONE', #209, 'mechanical' ) ;
#130 = CLOSED_SHELL ( 'NONE', ( #202, #128, #15, #240, #252, #5, #99 ) ) ;
#131 = APPROVAL_ROLE ( '' ) ;
#132 = AXIS2_PLACEMENT_3D ( 'NONE', #39, #97, #177 ) ;
#133 = CIRCLE ( 'NONE', #90, 3.000000000000000444 ) ;
#134 = CC_DESIGN_PERSON_AND_ORGANIZATION_ASSIGNMENT ( #149, #232, ( #32 ) ) ;
#135 = AXIS2_PLACEMENT_3D ( 'NONE', #11, #185, #225 ) ;
#136 = CARTESIAN_POINT ( 'NONE',  ( 3.000000000000000444, 3.673940397442060361E-16, 800.0000000000000000 ) ) ;
#137 = ORIENTED_EDGE ( 'NONE', *, *, #196, .F. ) ;
#138 = ORIENTED_EDGE ( 'NONE', *, *, #196, .T. ) ;
#139 = LINE ( 'NONE', #136, #60 ) ;
#140 = PERSON ( 'NEURÈENÝ', 'NEURÈENÝ', 'NEURÈENÝ', ('NEURÈENÝ'), ('NEURÈENÝ'), ('NEURÈENÝ') ) ;
#141 = ORIENTED_EDGE ( 'NONE', *, *, #77, .F. ) ;
#142 = DIRECTION ( 'NONE',  ( -0.000000000000000000, -0.000000000000000000, -1.000000000000000000 ) ) ;
#143 = EDGE_LOOP ( 'NONE', ( #151, #168 ) ) ;
#144 = DIRECTION ( 'NONE',  ( 0.000000000000000000, 0.000000000000000000, 1.000000000000000000 ) ) ;
#145 = AXIS2_PLACEMENT_3D ( 'NONE', #85, #146, #12 ) ;
#146 = DIRECTION ( 'NONE',  ( 0.000000000000000000, 0.000000000000000000, 1.000000000000000000 ) ) ;
#147 = EDGE_CURVE ( 'NONE', #89, #226, #45, .T. ) ;
#148 = DATE_AND_TIME ( #72, #241 ) ;
#149 = PERSON_AND_ORGANIZATION ( #140, #40 ) ;
#150 = COORDINATED_UNIVERSAL_TIME_OFFSET ( 1, 0, .AHEAD. ) ;
#151 = ORIENTED_EDGE ( 'NONE', *, *, #58, .F. ) ;
#152 = MANIFOLD_SOLID_BREP ( 'Pøidat vysunutím3', #130 ) ;
#153 = CIRCLE ( 'NONE', #16, 6.000000000000000888 ) ;
#154 = DATE_AND_TIME ( #54, #2 ) ;
#155 = EDGE_LOOP ( 'NONE', ( #8, #178 ) ) ;
#156 = CC_DESIGN_SECURITY_CLASSIFICATION ( #33, ( #59 ) ) ;
#157 = COORDINATED_UNIVERSAL_TIME_OFFSET ( 1, 0, .AHEAD. ) ;
#158 = EDGE_CURVE ( 'NONE', #165, #226, #139, .T. ) ;
#159 = CARTESIAN_POINT ( 'NONE',  ( 0.000000000000000000, 0.000000000000000000, 5.000000000000000000 ) ) ;
#160 = CYLINDRICAL_SURFACE ( 'NONE', #119, 6.000000000000000888 ) ;
#161 = FACE_OUTER_BOUND ( 'NONE', #207, .T. ) ;
#162 = DIRECTION ( 'NONE',  ( 1.000000000000000000, 0.000000000000000000, 0.000000000000000000 ) ) ;
#163 = CC_DESIGN_PERSON_AND_ORGANIZATION_ASSIGNMENT ( #36, #194, ( #33 ) ) ;
#164 = AXIS2_PLACEMENT_3D ( 'NONE', #69, #144, #228 ) ;
#165 = VERTEX_POINT ( 'NONE', #29 ) ;
#166 = ORIENTED_EDGE ( 'NONE', *, *, #37, .T. ) ;
#167 = CARTESIAN_POINT ( 'NONE',  ( -6.000000000000000888, 0.000000000000000000, 0.000000000000000000 ) ) ;
#168 = ORIENTED_EDGE ( 'NONE', *, *, #51, .F. ) ;
#169 = CC_DESIGN_PERSON_AND_ORGANIZATION_ASSIGNMENT ( #94, #73, ( #3 ) ) ;
#170 = APPROVAL_STATUS ( 'not_yet_approved' ) ;
#171 = DATE_AND_TIME ( #35, #189 ) ;
#172 = PERSON_AND_ORGANIZATION ( #140, #40 ) ;
#173 = DIRECTION ( 'NONE',  ( 1.000000000000000000, 0.000000000000000000, 0.000000000000000000 ) ) ;
#174 =( NAMED_UNIT ( * ) PLANE_ANGLE_UNIT ( ) SI_UNIT ( $, .RADIAN. ) );
#175 = EDGE_CURVE ( 'NONE', #184, #116, #55, .T. ) ;
#176 = DIRECTION ( 'NONE',  ( -1.000000000000000000, 0.000000000000000000, 0.000000000000000000 ) ) ;
#177 = DIRECTION ( 'NONE',  ( 1.000000000000000000, 0.000000000000000000, -0.000000000000000000 ) ) ;
#178 = ORIENTED_EDGE ( 'NONE', *, *, #110, .T. ) ;
#179 = CARTESIAN_POINT ( 'NONE',  ( 0.000000000000000000, 0.000000000000000000, 800.0000000000000000 ) ) ;
#180 = ORIENTED_EDGE ( 'NONE', *, *, #215, .F. ) ;
#181 = DIRECTION ( 'NONE',  ( -0.000000000000000000, -0.000000000000000000, -1.000000000000000000 ) ) ;
#182 = APPROVAL ( #34, 'NEURÈENÝ' ) ;
#183 = EDGE_LOOP ( 'NONE', ( #137, #25, #127, #122 ) ) ;
#184 = VERTEX_POINT ( 'NONE', #42 ) ;
#185 = DIRECTION ( 'NONE',  ( 0.000000000000000000, 0.000000000000000000, 1.000000000000000000 ) ) ;
#186 = AXIS2_PLACEMENT_3D ( 'NONE', #179, #7, #162 ) ;
#187 = APPROVAL_DATE_TIME ( #86, #250 ) ;
#188 = FACE_OUTER_BOUND ( 'NONE', #155, .T. ) ;
#189 = LOCAL_TIME ( 13, 17, 50.00000000000000000, #150 ) ;
#190 = ORIENTED_EDGE ( 'NONE', *, *, #215, .T. ) ;
#191 = PERSON_AND_ORGANIZATION_ROLE ( 'creator' ) ;
#192 = ADVANCED_BREP_SHAPE_REPRESENTATION ( 'b8df', ( #152, #22 ), #210 ) ;
#193 = PRODUCT_RELATED_PRODUCT_CATEGORY ( 'detail', '', ( #3 ) ) ;
#194 = PERSON_AND_ORGANIZATION_ROLE ( 'classification_officer' ) ;
#195 = AXIS2_PLACEMENT_3D ( 'NONE', #83, #10, #249 ) ;
#196 = EDGE_CURVE ( 'NONE', #184, #70, #204, .T. ) ;
#197 = APPROVAL_PERSON_ORGANIZATION ( #52, #250, #224 ) ;
#198 = PRODUCT_DEFINITION_SHAPE ( 'NONE', 'NONE',  #32 ) ;
#199 = PLANE ( 'NONE',  #21 ) ;
#200 = DIRECTION ( 'NONE',  ( -0.000000000000000000, -0.000000000000000000, -1.000000000000000000 ) ) ;
#201 = AXIS2_PLACEMENT_3D ( 'NONE', #203, #24, #4 ) ;
#202 = ADVANCED_FACE ( 'NONE', ( #245 ), #44, .T. ) ;
#203 = CARTESIAN_POINT ( 'NONE',  ( 0.000000000000000000, 0.000000000000000000, 800.0000000000000000 ) ) ;
#204 = LINE ( 'NONE', #243, #233 ) ;
#205 = VERTEX_POINT ( 'NONE', #9 ) ;
#206 = DIRECTION ( 'NONE',  ( 0.000000000000000000, 0.000000000000000000, 1.000000000000000000 ) ) ;
#207 = EDGE_LOOP ( 'NONE', ( #68, #238, #190, #13 ) ) ;
#208 = CARTESIAN_POINT ( 'NONE',  ( 6.000000000000000888, 7.347880794884120722E-16, 0.000000000000000000 ) ) ;
#209 = APPLICATION_CONTEXT ( 'configuration controlled 3d designs of mechanical parts and assemblies' ) ;
#210 =( GEOMETRIC_REPRESENTATION_CONTEXT ( 3 ) GLOBAL_UNCERTAINTY_ASSIGNED_CONTEXT ( ( #108 ) ) GLOBAL_UNIT_ASSIGNED_CONTEXT ( ( #239, #174, #75 ) ) REPRESENTATION_CONTEXT ( 'NONE', 'WORKASPACE' ) );
#211 = PERSON_AND_ORGANIZATION_ROLE ( 'design_supplier' ) ;
#212 = CC_DESIGN_PERSON_AND_ORGANIZATION_ASSIGNMENT ( #172, #211, ( #59 ) ) ;
#213 = PERSON_AND_ORGANIZATION ( #140, #40 ) ;
#214 = APPROVAL_DATE_TIME ( #251, #91 ) ;
#215 = EDGE_CURVE ( 'NONE', #205, #89, #84, .T. ) ;
#216 = AXIS2_PLACEMENT_3D ( 'NONE', #223, #30, #120 ) ;
#217 = DIRECTION ( 'NONE',  ( 1.000000000000000000, 0.000000000000000000, -0.000000000000000000 ) ) ;
#218 = ORIENTED_EDGE ( 'NONE', *, *, #115, .F. ) ;
#219 = DIRECTION ( 'NONE',  ( 1.000000000000000000, 0.000000000000000000, 0.000000000000000000 ) ) ;
#220 = EDGE_CURVE ( 'NONE', #205, #165, #255, .T. ) ;
#221 = LINE ( 'NONE', #31, #38 ) ;
#222 = DIRECTION ( 'NONE',  ( -0.000000000000000000, -0.000000000000000000, -1.000000000000000000 ) ) ;
#223 = CARTESIAN_POINT ( 'NONE',  ( 0.000000000000000000, 0.000000000000000000, 800.0000000000000000 ) ) ;
#224 = APPROVAL_ROLE ( '' ) ;
#225 = DIRECTION ( 'NONE',  ( 1.000000000000000000, 0.000000000000000000, 0.000000000000000000 ) ) ;
#226 = VERTEX_POINT ( 'NONE', #104 ) ;
#227 = SHAPE_DEFINITION_REPRESENTATION ( #198, #192 ) ;
#228 = DIRECTION ( 'NONE',  ( 1.000000000000000000, 0.000000000000000000, 0.000000000000000000 ) ) ;
#229 = DIRECTION ( 'NONE',  ( 0.000000000000000000, 0.000000000000000000, 1.000000000000000000 ) ) ;
#230 = DATE_TIME_ROLE ( 'classification_date' ) ;
#231 = LOCAL_TIME ( 13, 17, 50.00000000000000000, #247 ) ;
#232 = PERSON_AND_ORGANIZATION_ROLE ( 'creator' ) ;
#233 = VECTOR ( 'NONE', #222, 1000.000000000000000 ) ;
#234 = APPROVAL_DATE_TIME ( #171, #182 ) ;
#235 = CC_DESIGN_APPROVAL ( #91, ( #59 ) ) ;
#236 = DIRECTION ( 'NONE',  ( 0.000000000000000000, 0.000000000000000000, 1.000000000000000000 ) ) ;
#237 = AXIS2_PLACEMENT_3D ( 'NONE', #79, #48, #118 ) ;
#238 = ORIENTED_EDGE ( 'NONE', *, *, #220, .F. ) ;
#239 =( LENGTH_UNIT ( ) NAMED_UNIT ( * ) SI_UNIT ( .MILLI., .METRE. ) );
#240 = ADVANCED_FACE ( 'NONE', ( #87, #78 ), #199, .T. ) ;
#241 = LOCAL_TIME ( 13, 17, 50.00000000000000000, #20 ) ;
#242 = DIRECTION ( 'NONE',  ( 1.000000000000000000, 0.000000000000000000, 0.000000000000000000 ) ) ;
#243 = CARTESIAN_POINT ( 'NONE',  ( 6.000000000000000888, 7.347880794884120722E-16, 5.000000000000000000 ) ) ;
#244 = ORIENTED_EDGE ( 'NONE', *, *, #158, .T. ) ;
#245 = FACE_OUTER_BOUND ( 'NONE', #101, .T. ) ;
#246 = ORIENTED_EDGE ( 'NONE', *, *, #147, .F. ) ;
#247 = COORDINATED_UNIVERSAL_TIME_OFFSET ( 1, 0, .AHEAD. ) ;
#248 = CARTESIAN_POINT ( 'NONE',  ( 0.000000000000000000, 0.000000000000000000, 0.000000000000000000 ) ) ;
#249 = DIRECTION ( 'NONE',  ( -1.000000000000000000, 0.000000000000000000, 0.000000000000000000 ) ) ;
#250 = APPROVAL ( #109, 'NEURÈENÝ' ) ;
#251 = DATE_AND_TIME ( #254, #53 ) ;
#252 = ADVANCED_FACE ( 'NONE', ( #114 ), #23, .F. ) ;
#253 = CARTESIAN_POINT ( 'NONE',  ( 0.000000000000000000, 0.000000000000000000, 0.000000000000000000 ) ) ;
#254 = CALENDAR_DATE ( 2023, 12, 2 ) ;
#255 = CIRCLE ( 'NONE', #135, 3.000000000000000444 ) ;
ENDSEC;
END-ISO-10303-21;
