ISO-10303-21;
HEADER;
FILE_DESCRIPTION (( 'STEP AP203' ),
    '1' );
FILE_NAME ('0e1e.STEP',
    '2022-07-07T10:11:43',
    ( '' ),
    ( '' ),
    'SwSTEP 2.0',
    'SolidWorks 2019',
    '' );
FILE_SCHEMA (( 'CONFIG_CONTROL_DESIGN' ));
ENDSEC;

DATA;
#1 = FACE_OUTER_BOUND ( 'NONE', #247, .T. ) ;
#2 = AXIS2_PLACEMENT_3D ( 'NONE', #220, #244, #199 ) ;
#3 = DIRECTION ( 'NONE',  ( -0.000000000000000000, -0.000000000000000000, -1.000000000000000000 ) ) ;
#4 = CARTESIAN_POINT ( 'NONE',  ( 0.000000000000000000, 0.000000000000000000, 205.0000000000000284 ) ) ;
#5 = PRODUCT_DEFINITION ( 'NEZNÁMÝ', '', #186, #151 ) ;
#6 = CARTESIAN_POINT ( 'NONE',  ( 0.000000000000000000, 0.000000000000000000, 205.0000000000000284 ) ) ;
#7 = AXIS2_PLACEMENT_3D ( 'NONE', #6, #213, #235 ) ;
#8 = DATE_AND_TIME ( #266, #198 ) ;
#9 = ORIENTED_EDGE ( 'NONE', *, *, #303, .F. ) ;
#10 = EDGE_LOOP ( 'NONE', ( #222, #71, #116, #281 ) ) ;
#11 = PERSON_AND_ORGANIZATION ( #77, #195 ) ;
#12 = VERTEX_POINT ( 'NONE', #93 ) ;
#13 = CLOSED_SHELL ( 'NONE', ( #234, #208, #47, #104, #66, #130, #81, #260, #292 ) ) ;
#14 = DIRECTION ( 'NONE',  ( -1.000000000000000000, 0.000000000000000000, 0.000000000000000000 ) ) ;
#15 = LOCAL_TIME ( 12, 11, 43.00000000000000000, #87 ) ;
#16 = CARTESIAN_POINT ( 'NONE',  ( 0.000000000000000000, 0.000000000000000000, 5.200000000000009948 ) ) ;
#17 = ADVANCED_BREP_SHAPE_REPRESENTATION ( '0e1e', ( #38, #2 ), #137 ) ;
#18 = EDGE_CURVE ( 'NONE', #98, #228, #135, .T. ) ;
#19 = CARTESIAN_POINT ( 'NONE',  ( -3.299999999999999822, 4.041334437186265510E-16, 5.200000000000009948 ) ) ;
#20 = CC_DESIGN_DATE_AND_TIME_ASSIGNMENT ( #90, #152, ( #80 ) ) ;
#21 = ORIENTED_EDGE ( 'NONE', *, *, #275, .T. ) ;
#22 = CIRCLE ( 'NONE', #53, 3.100000000000000089 ) ;
#23 = APPROVAL_PERSON_ORGANIZATION ( #82, #256, #270 ) ;
#24 = PLANE ( 'NONE',  #114 ) ;
#25 = CARTESIAN_POINT ( 'NONE',  ( 6.000000000000000888, 7.347880794884120722E-16, 5.000000000000000000 ) ) ;
#26 = CARTESIAN_POINT ( 'NONE',  ( 0.000000000000000000, 0.000000000000000000, 205.0000000000000284 ) ) ;
#27 =( LENGTH_UNIT ( ) NAMED_UNIT ( * ) SI_UNIT ( .MILLI., .METRE. ) );
#28 = LOCAL_TIME ( 12, 11, 43.00000000000000000, #288 ) ;
#29 = DIRECTION ( 'NONE',  ( -0.000000000000000000, -0.000000000000000000, -1.000000000000000000 ) ) ;
#30 = PLANE ( 'NONE',  #226 ) ;
#31 = MECHANICAL_CONTEXT ( 'NONE', #279, 'mechanical' ) ;
#32 = EDGE_LOOP ( 'NONE', ( #110, #276, #223, #273 ) ) ;
#33 = CC_DESIGN_APPROVAL ( #70, ( #186 ) ) ;
#34 = EDGE_CURVE ( 'NONE', #88, #298, #126, .T. ) ;
#35 = PERSON_AND_ORGANIZATION ( #77, #195 ) ;
#36 = ORIENTED_EDGE ( 'NONE', *, *, #275, .F. ) ;
#37 = PERSON_AND_ORGANIZATION ( #77, #195 ) ;
#38 = MANIFOLD_SOLID_BREP ( 'Zaoblit1', #13 ) ;
#39 = EDGE_LOOP ( 'NONE', ( #242, #278, #167, #139 ) ) ;
#40 = PRODUCT ( '0e1e', '0e1e', '', ( #31 ) ) ;
#41 = CC_DESIGN_PERSON_AND_ORGANIZATION_ASSIGNMENT ( #35, #159, ( #80 ) ) ;
#42 = DIRECTION ( 'NONE',  ( 1.000000000000000000, 0.000000000000000000, 0.000000000000000000 ) ) ;
#43 = CARTESIAN_POINT ( 'NONE',  ( 0.000000000000000000, 0.000000000000000000, 5.200000000000009948 ) ) ;
#44 = VECTOR ( 'NONE', #29, 1000.000000000000000 ) ;
#45 = DIRECTION ( 'NONE',  ( 1.000000000000000000, 0.000000000000000000, 0.000000000000000000 ) ) ;
#46 = CARTESIAN_POINT ( 'NONE',  ( 0.000000000000000000, 0.000000000000000000, 5.000000000000000000 ) ) ;
#47 = ADVANCED_FACE ( 'NONE', ( #117 ), #225, .T. ) ;
#48 = DIRECTION ( 'NONE',  ( 0.000000000000000000, 0.000000000000000000, 1.000000000000000000 ) ) ;
#49 = CIRCLE ( 'NONE', #161, 6.000000000000000888 ) ;
#50 = LINE ( 'NONE', #285, #267 ) ;
#51 = PRODUCT_RELATED_PRODUCT_CATEGORY ( 'detail', '', ( #40 ) ) ;
#52 = CARTESIAN_POINT ( 'NONE',  ( 3.299999999999999822, 0.000000000000000000, 5.000000000000005329 ) ) ;
#53 = AXIS2_PLACEMENT_3D ( 'NONE', #16, #94, #211 ) ;
#54 = DIRECTION ( 'NONE',  ( 1.000000000000000000, 0.000000000000000000, 0.000000000000000000 ) ) ;
#55 = PERSON_AND_ORGANIZATION ( #77, #195 ) ;
#56 = CALENDAR_DATE ( 2022, 7, 7 ) ;
#57 = CC_DESIGN_PERSON_AND_ORGANIZATION_ASSIGNMENT ( #133, #154, ( #186 ) ) ;
#58 = AXIS2_PLACEMENT_3D ( 'NONE', #224, #209, #14 ) ;
#59 = PERSON_AND_ORGANIZATION_ROLE ( 'design_owner' ) ;
#60 = APPROVAL_STATUS ( 'not_yet_approved' ) ;
#61 = ORIENTED_EDGE ( 'NONE', *, *, #97, .F. ) ;
#62 = EDGE_CURVE ( 'NONE', #228, #129, #252, .T. ) ;
#63 = ORIENTED_EDGE ( 'NONE', *, *, #303, .T. ) ;
#64 = ORIENTED_EDGE ( 'NONE', *, *, #62, .T. ) ;
#65 = DIRECTION ( 'NONE',  ( 1.224646799147353207E-16, 1.000000000000000000, -0.000000000000000000 ) ) ;
#66 = ADVANCED_FACE ( 'NONE', ( #166, #134 ), #24, .T. ) ;
#67 = DIRECTION ( 'NONE',  ( 1.000000000000000000, 0.000000000000000000, 0.000000000000000000 ) ) ;
#68 = AXIS2_PLACEMENT_3D ( 'NONE', #217, #101, #282 ) ;
#69 = DIRECTION ( 'NONE',  ( 0.000000000000000000, 0.000000000000000000, 1.000000000000000000 ) ) ;
#70 = APPROVAL ( #60, 'NEURÈENÝ' ) ;
#71 = ORIENTED_EDGE ( 'NONE', *, *, #89, .F. ) ;
#72 = LINE ( 'NONE', #120, #231 ) ;
#73 = AXIS2_PLACEMENT_3D ( 'NONE', #19, #65, #227 ) ;
#74 = CARTESIAN_POINT ( 'NONE',  ( 0.000000000000000000, 0.000000000000000000, 5.000000000000000000 ) ) ;
#75 = DIRECTION ( 'NONE',  ( 0.000000000000000000, 0.000000000000000000, 1.000000000000000000 ) ) ;
#76 = EDGE_CURVE ( 'NONE', #98, #249, #246, .T. ) ;
#77 = PERSON ( 'NEURÈENÝ', 'NEURÈENÝ', 'NEURÈENÝ', ('NEURÈENÝ'), ('NEURÈENÝ'), ('NEURÈENÝ') ) ;
#78 = DIRECTION ( 'NONE',  ( 1.000000000000000000, 0.000000000000000000, 0.000000000000000000 ) ) ;
#79 = DIRECTION ( 'NONE',  ( 0.000000000000000000, 0.000000000000000000, 1.000000000000000000 ) ) ;
#80 = SECURITY_CLASSIFICATION ( '', '', #297 ) ;
#81 = ADVANCED_FACE ( 'NONE', ( #119 ), #136, .T. ) ;
#82 = PERSON_AND_ORGANIZATION ( #77, #195 ) ;
#83 = ORIENTED_EDGE ( 'NONE', *, *, #192, .F. ) ;
#84 = AXIS2_PLACEMENT_3D ( 'NONE', #187, #302, #250 ) ;
#85 = APPROVAL_STATUS ( 'not_yet_approved' ) ;
#86 = ORIENTED_EDGE ( 'NONE', *, *, #269, .T. ) ;
#87 = COORDINATED_UNIVERSAL_TIME_OFFSET ( 1, 0, .AHEAD. ) ;
#88 = VERTEX_POINT ( 'NONE', #115 ) ;
#89 = EDGE_CURVE ( 'NONE', #249, #98, #22, .T. ) ;
#90 = DATE_AND_TIME ( #131, #165 ) ;
#91 = EDGE_LOOP ( 'NONE', ( #9, #108, #296, #176 ) ) ;
#92 = CC_DESIGN_APPROVAL ( #256, ( #5 ) ) ;
#93 = CARTESIAN_POINT ( 'NONE',  ( 6.000000000000000888, 7.347880794884120722E-16, 0.000000000000000000 ) ) ;
#94 = DIRECTION ( 'NONE',  ( 0.000000000000000000, 0.000000000000000000, 1.000000000000000000 ) ) ;
#95 = DIRECTION ( 'NONE',  ( 1.000000000000000000, 0.000000000000000000, -0.000000000000000000 ) ) ;
#96 = DIRECTION ( 'NONE',  ( -0.000000000000000000, -0.000000000000000000, -1.000000000000000000 ) ) ;
#97 = EDGE_CURVE ( 'NONE', #129, #228, #197, .T. ) ;
#98 = VERTEX_POINT ( 'NONE', #212 ) ;
#99 = PRODUCT_DEFINITION_SHAPE ( 'NONE', 'NONE',  #5 ) ;
#100 = CARTESIAN_POINT ( 'NONE',  ( 0.000000000000000000, 0.000000000000000000, 5.200000000000009948 ) ) ;
#101 = DIRECTION ( 'NONE',  ( 0.000000000000000000, 0.000000000000000000, 1.000000000000000000 ) ) ;
#102 = FACE_OUTER_BOUND ( 'NONE', #32, .T. ) ;
#103 = DIRECTION ( 'NONE',  ( -0.000000000000000000, -0.000000000000000000, -1.000000000000000000 ) ) ;
#104 = ADVANCED_FACE ( 'NONE', ( #305 ), #301, .T. ) ;
#105 = DIRECTION ( 'NONE',  ( 0.000000000000000000, 0.000000000000000000, 1.000000000000000000 ) ) ;
#106 = VECTOR ( 'NONE', #216, 1000.000000000000000 ) ;
#107 = APPROVAL_DATE_TIME ( #8, #156 ) ;
#108 = ORIENTED_EDGE ( 'NONE', *, *, #306, .T. ) ;
#109 = CC_DESIGN_PERSON_AND_ORGANIZATION_ASSIGNMENT ( #287, #59, ( #40 ) ) ;
#110 = ORIENTED_EDGE ( 'NONE', *, *, #113, .F. ) ;
#111 = APPROVAL_PERSON_ORGANIZATION ( #55, #70, #180 ) ;
#112 = PERSON_AND_ORGANIZATION_ROLE ( 'creator' ) ;
#113 = EDGE_CURVE ( 'NONE', #202, #257, #184, .T. ) ;
#114 = AXIS2_PLACEMENT_3D ( 'NONE', #280, #48, #95 ) ;
#115 = CARTESIAN_POINT ( 'NONE',  ( -6.000000000000000888, 0.000000000000000000, 5.000000000000000000 ) ) ;
#116 = ORIENTED_EDGE ( 'NONE', *, *, #168, .T. ) ;
#117 = FACE_OUTER_BOUND ( 'NONE', #91, .T. ) ;
#118 = CARTESIAN_POINT ( 'NONE',  ( 0.000000000000000000, 0.000000000000000000, 205.0000000000000284 ) ) ;
#119 = FACE_OUTER_BOUND ( 'NONE', #39, .T. ) ;
#120 = CARTESIAN_POINT ( 'NONE',  ( -6.000000000000000888, 0.000000000000000000, 5.000000000000000000 ) ) ;
#121 = FACE_OUTER_BOUND ( 'NONE', #10, .T. ) ;
#122 = DIRECTION ( 'NONE',  ( 1.000000000000000000, 0.000000000000000000, -0.000000000000000000 ) ) ;
#123 = DIRECTION ( 'NONE',  ( 0.000000000000000000, -1.000000000000000000, 0.000000000000000000 ) ) ;
#124 = EDGE_CURVE ( 'NONE', #202, #249, #164, .T. ) ;
#125 = DIRECTION ( 'NONE',  ( -1.000000000000000000, 0.000000000000000000, 0.000000000000000000 ) ) ;
#126 = CIRCLE ( 'NONE', #175, 6.000000000000000888 ) ;
#127 = CALENDAR_DATE ( 2022, 7, 7 ) ;
#128 = AXIS2_PLACEMENT_3D ( 'NONE', #100, #218, #78 ) ;
#129 = VERTEX_POINT ( 'NONE', #52 ) ;
#130 = ADVANCED_FACE ( 'NONE', ( #196 ), #30, .F. ) ;
#131 = CALENDAR_DATE ( 2022, 7, 7 ) ;
#132 = COORDINATED_UNIVERSAL_TIME_OFFSET ( 1, 0, .AHEAD. ) ;
#133 = PERSON_AND_ORGANIZATION ( #77, #195 ) ;
#134 = FACE_OUTER_BOUND ( 'NONE', #155, .T. ) ;
#135 = CIRCLE ( 'NONE', #73, 0.2000000000000000944 ) ;
#136 = CYLINDRICAL_SURFACE ( 'NONE', #158, 3.100000000000000089 ) ;
#137 =( GEOMETRIC_REPRESENTATION_CONTEXT ( 3 ) GLOBAL_UNCERTAINTY_ASSIGNED_CONTEXT ( ( #290 ) ) GLOBAL_UNIT_ASSIGNED_CONTEXT ( ( #27, #262, #248 ) ) REPRESENTATION_CONTEXT ( 'NONE', 'WORKASPACE' ) );
#138 = AXIS2_PLACEMENT_3D ( 'NONE', #145, #79, #54 ) ;
#139 = ORIENTED_EDGE ( 'NONE', *, *, #76, .T. ) ;
#140 = ORIENTED_EDGE ( 'NONE', *, *, #34, .F. ) ;
#141 = ORIENTED_EDGE ( 'NONE', *, *, #168, .F. ) ;
#142 = AXIS2_PLACEMENT_3D ( 'NONE', #146, #75, #232 ) ;
#143 = DIRECTION ( 'NONE',  ( 0.000000000000000000, 0.000000000000000000, -1.000000000000000000 ) ) ;
#144 = CARTESIAN_POINT ( 'NONE',  ( -6.000000000000000888, 0.000000000000000000, 0.000000000000000000 ) ) ;
#145 = CARTESIAN_POINT ( 'NONE',  ( 0.000000000000000000, 0.000000000000000000, 0.000000000000000000 ) ) ;
#146 = CARTESIAN_POINT ( 'NONE',  ( 0.000000000000000000, 0.000000000000000000, 5.200000000000009948 ) ) ;
#147 = CC_DESIGN_DATE_AND_TIME_ASSIGNMENT ( #204, #271, ( #5 ) ) ;
#148 = CARTESIAN_POINT ( 'NONE',  ( 3.100000000000000089, 3.796405077356794918E-16, 205.0000000000000284 ) ) ;
#149 = DATE_AND_TIME ( #56, #274 ) ;
#150 = ORIENTED_EDGE ( 'NONE', *, *, #113, .T. ) ;
#151 = DESIGN_CONTEXT ( 'detailed design', #239, 'design' ) ;
#152 = DATE_TIME_ROLE ( 'classification_date' ) ;
#153 = EDGE_CURVE ( 'NONE', #257, #98, #50, .T. ) ;
#154 = PERSON_AND_ORGANIZATION_ROLE ( 'design_supplier' ) ;
#155 = EDGE_LOOP ( 'NONE', ( #289, #63 ) ) ;
#156 = APPROVAL ( #85, 'NEURÈENÝ' ) ;
#157 = PERSON_AND_ORGANIZATION ( #77, #195 ) ;
#158 = AXIS2_PLACEMENT_3D ( 'NONE', #118, #255, #304 ) ;
#159 = PERSON_AND_ORGANIZATION_ROLE ( 'classification_officer' ) ;
#160 = ORIENTED_EDGE ( 'NONE', *, *, #306, .F. ) ;
#161 = AXIS2_PLACEMENT_3D ( 'NONE', #74, #194, #170 ) ;
#162 = DIRECTION ( 'NONE',  ( 1.000000000000000000, 0.000000000000000000, 0.000000000000000000 ) ) ;
#163 = ORIENTED_EDGE ( 'NONE', *, *, #263, .T. ) ;
#164 = LINE ( 'NONE', #254, #44 ) ;
#165 = LOCAL_TIME ( 12, 11, 43.00000000000000000, #245 ) ;
#166 = FACE_BOUND ( 'NONE', #179, .T. ) ;
#167 = ORIENTED_EDGE ( 'NONE', *, *, #153, .T. ) ;
#168 = EDGE_CURVE ( 'NONE', #249, #129, #258, .T. ) ;
#169 = DIRECTION ( 'NONE',  ( 0.000000000000000000, 0.000000000000000000, 1.000000000000000000 ) ) ;
#170 = DIRECTION ( 'NONE',  ( 1.000000000000000000, 0.000000000000000000, 0.000000000000000000 ) ) ;
#171 = LINE ( 'NONE', #261, #106 ) ;
#172 = DIRECTION ( 'NONE',  ( 1.000000000000000000, 0.000000000000000000, 0.000000000000000000 ) ) ;
#173 = DATE_AND_TIME ( #127, #28 ) ;
#174 = APPLICATION_PROTOCOL_DEFINITION ( 'international standard', 'config_control_design', 1994, #279 ) ;
#175 = AXIS2_PLACEMENT_3D ( 'NONE', #193, #210, #162 ) ;
#176 = ORIENTED_EDGE ( 'NONE', *, *, #263, .F. ) ;
#177 = CC_DESIGN_APPROVAL ( #156, ( #80 ) ) ;
#178 = APPROVAL_ROLE ( '' ) ;
#179 = EDGE_LOOP ( 'NONE', ( #293, #64 ) ) ;
#180 = APPROVAL_ROLE ( '' ) ;
#181 = VERTEX_POINT ( 'NONE', #144 ) ;
#182 = CALENDAR_DATE ( 2022, 7, 7 ) ;
#183 = EDGE_LOOP ( 'NONE', ( #36, #83 ) ) ;
#184 = CIRCLE ( 'NONE', #215, 3.100000000000000089 ) ;
#185 = ORIENTED_EDGE ( 'NONE', *, *, #76, .F. ) ;
#186 = PRODUCT_DEFINITION_FORMATION_WITH_SPECIFIED_SOURCE ( 'LIBOVOLNÝ', '', #40, .NOT_KNOWN. ) ;
#187 = CARTESIAN_POINT ( 'NONE',  ( 0.000000000000000000, 0.000000000000000000, 5.000000000000000000 ) ) ;
#188 = DIRECTION ( 'NONE',  ( 0.000000000000000000, 0.000000000000000000, 1.000000000000000000 ) ) ;
#189 = AXIS2_PLACEMENT_3D ( 'NONE', #43, #69, #45 ) ;
#190 = DIRECTION ( 'NONE',  ( -0.000000000000000000, -0.000000000000000000, -1.000000000000000000 ) ) ;
#191 = DIRECTION ( 'NONE',  ( 1.000000000000000000, 0.000000000000000000, 0.000000000000000000 ) ) ;
#192 = EDGE_CURVE ( 'NONE', #12, #181, #294, .T. ) ;
#193 = CARTESIAN_POINT ( 'NONE',  ( 0.000000000000000000, 0.000000000000000000, 5.000000000000000000 ) ) ;
#194 = DIRECTION ( 'NONE',  ( 0.000000000000000000, 0.000000000000000000, 1.000000000000000000 ) ) ;
#195 = ORGANIZATION ( 'NEURÈENÝ', 'NEURÈENÝ', '' ) ;
#196 = FACE_OUTER_BOUND ( 'NONE', #183, .T. ) ;
#197 = CIRCLE ( 'NONE', #229, 3.299999999999999822 ) ;
#198 = LOCAL_TIME ( 12, 11, 43.00000000000000000, #132 ) ;
#199 = DIRECTION ( 'NONE',  ( 1.000000000000000000, 0.000000000000000000, 0.000000000000000000 ) ) ;
#200 = SHAPE_DEFINITION_REPRESENTATION ( #99, #17 ) ;
#201 = APPROVAL_STATUS ( 'not_yet_approved' ) ;
#202 = VERTEX_POINT ( 'NONE', #148 ) ;
#203 = TOROIDAL_SURFACE ( 'NONE', #128, 3.299999999999999822, 0.2000000000000000111 ) ;
#204 = DATE_AND_TIME ( #182, #15 ) ;
#205 = CC_DESIGN_PERSON_AND_ORGANIZATION_ASSIGNMENT ( #11, #221, ( #5 ) ) ;
#206 = CARTESIAN_POINT ( 'NONE',  ( 0.000000000000000000, 0.000000000000000000, 205.0000000000000284 ) ) ;
#207 = AXIS2_PLACEMENT_3D ( 'NONE', #4, #283, #125 ) ;
#208 = ADVANCED_FACE ( 'NONE', ( #102 ), #284, .T. ) ;
#209 = DIRECTION ( 'NONE',  ( -0.000000000000000000, -0.000000000000000000, -1.000000000000000000 ) ) ;
#210 = DIRECTION ( 'NONE',  ( 0.000000000000000000, 0.000000000000000000, 1.000000000000000000 ) ) ;
#211 = DIRECTION ( 'NONE',  ( 1.000000000000000000, 0.000000000000000000, 0.000000000000000000 ) ) ;
#212 = CARTESIAN_POINT ( 'NONE',  ( -3.100000000000000089, 0.000000000000000000, 5.200000000000009948 ) ) ;
#213 = DIRECTION ( 'NONE',  ( 0.000000000000000000, 0.000000000000000000, 1.000000000000000000 ) ) ;
#214 = PLANE ( 'NONE',  #7 ) ;
#215 = AXIS2_PLACEMENT_3D ( 'NONE', #206, #188, #67 ) ;
#216 = DIRECTION ( 'NONE',  ( -0.000000000000000000, -0.000000000000000000, -1.000000000000000000 ) ) ;
#217 = CARTESIAN_POINT ( 'NONE',  ( 0.000000000000000000, 0.000000000000000000, 0.000000000000000000 ) ) ;
#218 = DIRECTION ( 'NONE',  ( 0.000000000000000000, 0.000000000000000000, 1.000000000000000000 ) ) ;
#219 = TOROIDAL_SURFACE ( 'NONE', #142, 3.299999999999999822, 0.2000000000000000111 ) ;
#220 = CARTESIAN_POINT ( 'NONE',  ( 0.000000000000000000, 0.000000000000000000, 0.000000000000000000 ) ) ;
#221 = PERSON_AND_ORGANIZATION_ROLE ( 'creator' ) ;
#222 = ORIENTED_EDGE ( 'NONE', *, *, #18, .F. ) ;
#223 = ORIENTED_EDGE ( 'NONE', *, *, #89, .T. ) ;
#224 = CARTESIAN_POINT ( 'NONE',  ( 0.000000000000000000, 0.000000000000000000, 5.000000000000000000 ) ) ;
#225 = CYLINDRICAL_SURFACE ( 'NONE', #84, 6.000000000000000888 ) ;
#226 = AXIS2_PLACEMENT_3D ( 'NONE', #264, #105, #122 ) ;
#227 = DIRECTION ( 'NONE',  ( -1.000000000000000000, 1.224646799147353207E-16, 0.000000000000000000 ) ) ;
#228 = VERTEX_POINT ( 'NONE', #237 ) ;
#229 = AXIS2_PLACEMENT_3D ( 'NONE', #46, #96, #191 ) ;
#230 = EDGE_LOOP ( 'NONE', ( #160, #140, #163, #21 ) ) ;
#231 = VECTOR ( 'NONE', #3, 1000.000000000000000 ) ;
#232 = DIRECTION ( 'NONE',  ( 1.000000000000000000, 0.000000000000000000, 0.000000000000000000 ) ) ;
#233 = CARTESIAN_POINT ( 'NONE',  ( 3.299999999999999822, 0.000000000000000000, 5.200000000000009948 ) ) ;
#234 = ADVANCED_FACE ( 'NONE', ( #1 ), #203, .F. ) ;
#235 = DIRECTION ( 'NONE',  ( 1.000000000000000000, 0.000000000000000000, -0.000000000000000000 ) ) ;
#236 = CC_DESIGN_SECURITY_CLASSIFICATION ( #80, ( #186 ) ) ;
#237 = CARTESIAN_POINT ( 'NONE',  ( -3.299999999999999822, 4.041334437186265510E-16, 5.000000000000005329 ) ) ;
#238 = CARTESIAN_POINT ( 'NONE',  ( -3.100000000000000089, 0.000000000000000000, 205.0000000000000284 ) ) ;
#239 = APPLICATION_CONTEXT ( 'configuration controlled 3d designs of mechanical parts and assemblies' ) ;
#240 = CC_DESIGN_PERSON_AND_ORGANIZATION_ASSIGNMENT ( #157, #112, ( #186 ) ) ;
#241 = APPROVAL_DATE_TIME ( #149, #70 ) ;
#242 = ORIENTED_EDGE ( 'NONE', *, *, #124, .F. ) ;
#243 = APPROVAL_PERSON_ORGANIZATION ( #37, #156, #178 ) ;
#244 = DIRECTION ( 'NONE',  ( 0.000000000000000000, 0.000000000000000000, 1.000000000000000000 ) ) ;
#245 = COORDINATED_UNIVERSAL_TIME_OFFSET ( 1, 0, .AHEAD. ) ;
#246 = CIRCLE ( 'NONE', #189, 3.100000000000000089 ) ;
#247 = EDGE_LOOP ( 'NONE', ( #185, #277, #61, #141 ) ) ;
#248 =( NAMED_UNIT ( * ) SI_UNIT ( $, .STERADIAN. ) SOLID_ANGLE_UNIT ( ) );
#249 = VERTEX_POINT ( 'NONE', #259 ) ;
#250 = DIRECTION ( 'NONE',  ( -1.000000000000000000, 0.000000000000000000, 0.000000000000000000 ) ) ;
#251 = CARTESIAN_POINT ( 'NONE',  ( 0.000000000000000000, 0.000000000000000000, 5.000000000000000000 ) ) ;
#252 = CIRCLE ( 'NONE', #272, 3.299999999999999822 ) ;
#253 = AXIS2_PLACEMENT_3D ( 'NONE', #233, #123, #143 ) ;
#254 = CARTESIAN_POINT ( 'NONE',  ( 3.100000000000000089, 3.796405077356794918E-16, 205.0000000000000284 ) ) ;
#255 = DIRECTION ( 'NONE',  ( -0.000000000000000000, -0.000000000000000000, -1.000000000000000000 ) ) ;
#256 = APPROVAL ( #201, 'NEURÈENÝ' ) ;
#257 = VERTEX_POINT ( 'NONE', #238 ) ;
#258 = CIRCLE ( 'NONE', #253, 0.1999999999999996503 ) ;
#259 = CARTESIAN_POINT ( 'NONE',  ( 3.100000000000000089, 3.796405077356794918E-16, 5.200000000000009948 ) ) ;
#260 = ADVANCED_FACE ( 'NONE', ( #307 ), #214, .T. ) ;
#261 = CARTESIAN_POINT ( 'NONE',  ( 6.000000000000000888, 7.347880794884120722E-16, 5.000000000000000000 ) ) ;
#262 =( NAMED_UNIT ( * ) PLANE_ANGLE_UNIT ( ) SI_UNIT ( $, .RADIAN. ) );
#263 = EDGE_CURVE ( 'NONE', #88, #181, #72, .T. ) ;
#264 = CARTESIAN_POINT ( 'NONE',  ( 0.000000000000000000, 0.000000000000000000, 0.000000000000000000 ) ) ;
#265 = APPROVAL_DATE_TIME ( #173, #256 ) ;
#266 = CALENDAR_DATE ( 2022, 7, 7 ) ;
#267 = VECTOR ( 'NONE', #103, 1000.000000000000000 ) ;
#268 = CIRCLE ( 'NONE', #286, 3.100000000000000089 ) ;
#269 = EDGE_CURVE ( 'NONE', #257, #202, #268, .T. ) ;
#270 = APPROVAL_ROLE ( '' ) ;
#271 = DATE_TIME_ROLE ( 'creation_date' ) ;
#272 = AXIS2_PLACEMENT_3D ( 'NONE', #251, #190, #42 ) ;
#273 = ORIENTED_EDGE ( 'NONE', *, *, #153, .F. ) ;
#274 = LOCAL_TIME ( 12, 11, 43.00000000000000000, #291 ) ;
#275 = EDGE_CURVE ( 'NONE', #181, #12, #299, .T. ) ;
#276 = ORIENTED_EDGE ( 'NONE', *, *, #124, .T. ) ;
#277 = ORIENTED_EDGE ( 'NONE', *, *, #18, .T. ) ;
#278 = ORIENTED_EDGE ( 'NONE', *, *, #269, .F. ) ;
#279 = APPLICATION_CONTEXT ( 'configuration controlled 3d designs of mechanical parts and assemblies' ) ;
#280 = CARTESIAN_POINT ( 'NONE',  ( 0.000000000000000000, 0.000000000000000000, 5.000000000000000000 ) ) ;
#281 = ORIENTED_EDGE ( 'NONE', *, *, #62, .F. ) ;
#282 = DIRECTION ( 'NONE',  ( 1.000000000000000000, 0.000000000000000000, 0.000000000000000000 ) ) ;
#283 = DIRECTION ( 'NONE',  ( -0.000000000000000000, -0.000000000000000000, -1.000000000000000000 ) ) ;
#284 = CYLINDRICAL_SURFACE ( 'NONE', #207, 3.100000000000000089 ) ;
#285 = CARTESIAN_POINT ( 'NONE',  ( -3.100000000000000089, 0.000000000000000000, 205.0000000000000284 ) ) ;
#286 = AXIS2_PLACEMENT_3D ( 'NONE', #26, #169, #172 ) ;
#287 = PERSON_AND_ORGANIZATION ( #77, #195 ) ;
#288 = COORDINATED_UNIVERSAL_TIME_OFFSET ( 1, 0, .AHEAD. ) ;
#289 = ORIENTED_EDGE ( 'NONE', *, *, #34, .T. ) ;
#290 = UNCERTAINTY_MEASURE_WITH_UNIT (LENGTH_MEASURE( 1.000000000000000082E-05 ), #27, 'distance_accuracy_value', 'NONE');
#291 = COORDINATED_UNIVERSAL_TIME_OFFSET ( 1, 0, .AHEAD. ) ;
#292 = ADVANCED_FACE ( 'NONE', ( #121 ), #219, .F. ) ;
#293 = ORIENTED_EDGE ( 'NONE', *, *, #97, .T. ) ;
#294 = CIRCLE ( 'NONE', #138, 6.000000000000000888 ) ;
#295 = APPLICATION_PROTOCOL_DEFINITION ( 'international standard', 'config_control_design', 1994, #239 ) ;
#296 = ORIENTED_EDGE ( 'NONE', *, *, #192, .T. ) ;
#297 = SECURITY_CLASSIFICATION_LEVEL ( 'unclassified' ) ;
#298 = VERTEX_POINT ( 'NONE', #25 ) ;
#299 = CIRCLE ( 'NONE', #68, 6.000000000000000888 ) ;
#300 = EDGE_LOOP ( 'NONE', ( #86, #150 ) ) ;
#301 = CYLINDRICAL_SURFACE ( 'NONE', #58, 6.000000000000000888 ) ;
#302 = DIRECTION ( 'NONE',  ( -0.000000000000000000, -0.000000000000000000, -1.000000000000000000 ) ) ;
#303 = EDGE_CURVE ( 'NONE', #298, #88, #49, .T. ) ;
#304 = DIRECTION ( 'NONE',  ( -1.000000000000000000, 0.000000000000000000, 0.000000000000000000 ) ) ;
#305 = FACE_OUTER_BOUND ( 'NONE', #230, .T. ) ;
#306 = EDGE_CURVE ( 'NONE', #298, #12, #171, .T. ) ;
#307 = FACE_OUTER_BOUND ( 'NONE', #300, .T. ) ;
ENDSEC;
END-ISO-10303-21;
