ISO-10303-21;
HEADER;
FILE_DESCRIPTION (( 'STEP AP203' ),
    '1' );
FILE_NAME ('2866.STEP',
    '2023-02-12T11:05:46',
    ( '' ),
    ( '' ),
    'SwSTEP 2.0',
    'SolidWorks 2019',
    '' );
FILE_SCHEMA (( 'CONFIG_CONTROL_DESIGN' ));
ENDSEC;

DATA;
#1 = PRODUCT_DEFINITION_SHAPE ( 'NONE', 'NONE',  #112 ) ;
#2 = PERSON_AND_ORGANIZATION_ROLE ( 'classification_officer' ) ;
#3 = AXIS2_PLACEMENT_3D ( 'NONE', #70, #21, #218 ) ;
#4 = PERSON_AND_ORGANIZATION ( #180, #12 ) ;
#5 = LINE ( 'NONE', #155, #140 ) ;
#6 = DIRECTION ( 'NONE',  ( 0.000000000000000000, 0.000000000000000000, 1.000000000000000000 ) ) ;
#7 = APPROVAL_DATE_TIME ( #246, #222 ) ;
#8 = ORIENTED_EDGE ( 'NONE', *, *, #85, .T. ) ;
#9 = DATE_AND_TIME ( #193, #201 ) ;
#10 = AXIS2_PLACEMENT_3D ( 'NONE', #33, #46, #66 ) ;
#11 = DATE_TIME_ROLE ( 'creation_date' ) ;
#12 = ORGANIZATION ( 'NEURÈENÝ', 'NEURÈENÝ', '' ) ;
#13 = DIRECTION ( 'NONE',  ( 1.000000000000000000, 0.000000000000000000, -0.000000000000000000 ) ) ;
#14 = EDGE_LOOP ( 'NONE', ( #164, #120 ) ) ;
#15 = VERTEX_POINT ( 'NONE', #175 ) ;
#16 = DIRECTION ( 'NONE',  ( -1.000000000000000000, 0.000000000000000000, 0.000000000000000000 ) ) ;
#17 = CC_DESIGN_APPROVAL ( #252, ( #236 ) ) ;
#18 = VERTEX_POINT ( 'NONE', #53 ) ;
#19 = CARTESIAN_POINT ( 'NONE',  ( 0.000000000000000000, 0.000000000000000000, 250.0000000000000000 ) ) ;
#20 = ADVANCED_BREP_SHAPE_REPRESENTATION ( '2866', ( #171, #190 ), #61 ) ;
#21 = DIRECTION ( 'NONE',  ( 0.000000000000000000, 0.000000000000000000, 1.000000000000000000 ) ) ;
#22 = FACE_OUTER_BOUND ( 'NONE', #74, .T. ) ;
#23 = EDGE_CURVE ( 'NONE', #15, #63, #79, .T. ) ;
#24 = CARTESIAN_POINT ( 'NONE',  ( 0.000000000000000000, 0.000000000000000000, 7.000000000000000000 ) ) ;
#25 = CC_DESIGN_DATE_AND_TIME_ASSIGNMENT ( #37, #242, ( #170 ) ) ;
#26 = CC_DESIGN_SECURITY_CLASSIFICATION ( #170, ( #236 ) ) ;
#27 = CARTESIAN_POINT ( 'NONE',  ( 0.000000000000000000, 0.000000000000000000, 7.000000000000000000 ) ) ;
#28 = AXIS2_PLACEMENT_3D ( 'NONE', #240, #178, #13 ) ;
#29 = ORIENTED_EDGE ( 'NONE', *, *, #78, .T. ) ;
#30 = PERSON_AND_ORGANIZATION ( #180, #12 ) ;
#31 = EDGE_CURVE ( 'NONE', #141, #47, #214, .T. ) ;
#32 = CALENDAR_DATE ( 2023, 12, 2 ) ;
#33 = CARTESIAN_POINT ( 'NONE',  ( 0.000000000000000000, 0.000000000000000000, 250.0000000000000000 ) ) ;
#34 = AXIS2_PLACEMENT_3D ( 'NONE', #27, #150, #188 ) ;
#35 = PERSON_AND_ORGANIZATION_ROLE ( 'design_owner' ) ;
#36 = CARTESIAN_POINT ( 'NONE',  ( 0.000000000000000000, 0.000000000000000000, 7.000000000000000000 ) ) ;
#37 = DATE_AND_TIME ( #60, #205 ) ;
#38 = CYLINDRICAL_SURFACE ( 'NONE', #95, 6.000000000000000888 ) ;
#39 = DIRECTION ( 'NONE',  ( 0.000000000000000000, 0.000000000000000000, 1.000000000000000000 ) ) ;
#40 = CC_DESIGN_PERSON_AND_ORGANIZATION_ASSIGNMENT ( #219, #239, ( #236 ) ) ;
#41 = EDGE_CURVE ( 'NONE', #212, #135, #5, .T. ) ;
#42 =( NAMED_UNIT ( * ) SI_UNIT ( $, .STERADIAN. ) SOLID_ANGLE_UNIT ( ) );
#43 = CARTESIAN_POINT ( 'NONE',  ( -9.000000000000000000, 0.000000000000000000, 7.000000000000000000 ) ) ;
#44 = AXIS2_PLACEMENT_3D ( 'NONE', #36, #198, #244 ) ;
#45 = ORIENTED_EDGE ( 'NONE', *, *, #41, .T. ) ;
#46 = DIRECTION ( 'NONE',  ( -0.000000000000000000, -0.000000000000000000, -1.000000000000000000 ) ) ;
#47 = VERTEX_POINT ( 'NONE', #56 ) ;
#48 = VERTEX_POINT ( 'NONE', #137 ) ;
#49 = FACE_BOUND ( 'NONE', #14, .T. ) ;
#50 = ORIENTED_EDGE ( 'NONE', *, *, #229, .T. ) ;
#51 = PLANE ( 'NONE',  #173 ) ;
#52 = PERSON_AND_ORGANIZATION ( #180, #12 ) ;
#53 = CARTESIAN_POINT ( 'NONE',  ( -6.000000000000000888, 0.000000000000000000, 250.0000000000000000 ) ) ;
#54 = DIRECTION ( 'NONE',  ( -0.000000000000000000, -0.000000000000000000, -1.000000000000000000 ) ) ;
#55 = CIRCLE ( 'NONE', #90, 6.000000000000000888 ) ;
#56 = CARTESIAN_POINT ( 'NONE',  ( 9.000000000000000000, 1.102182119232617714E-15, 7.000000000000000000 ) ) ;
#57 = EDGE_LOOP ( 'NONE', ( #243, #123, #50, #251 ) ) ;
#58 = CARTESIAN_POINT ( 'NONE',  ( 0.000000000000000000, 0.000000000000000000, 0.000000000000000000 ) ) ;
#59 = AXIS2_PLACEMENT_3D ( 'NONE', #146, #39, #181 ) ;
#60 = CALENDAR_DATE ( 2023, 12, 2 ) ;
#61 =( GEOMETRIC_REPRESENTATION_CONTEXT ( 3 ) GLOBAL_UNCERTAINTY_ASSIGNED_CONTEXT ( ( #89 ) ) GLOBAL_UNIT_ASSIGNED_CONTEXT ( ( #165, #147, #42 ) ) REPRESENTATION_CONTEXT ( 'NONE', 'WORKASPACE' ) );
#62 = CARTESIAN_POINT ( 'NONE',  ( 9.000000000000000000, 1.102182119232617714E-15, 7.000000000000000000 ) ) ;
#63 = VERTEX_POINT ( 'NONE', #238 ) ;
#64 = COORDINATED_UNIVERSAL_TIME_OFFSET ( 1, 0, .AHEAD. ) ;
#65 = AXIS2_PLACEMENT_3D ( 'NONE', #58, #166, #230 ) ;
#66 = DIRECTION ( 'NONE',  ( -1.000000000000000000, 0.000000000000000000, 0.000000000000000000 ) ) ;
#67 = PRODUCT ( '2866', '2866', '', ( #86 ) ) ;
#68 = PERSON_AND_ORGANIZATION ( #180, #12 ) ;
#69 = ORIENTED_EDGE ( 'NONE', *, *, #78, .F. ) ;
#70 = CARTESIAN_POINT ( 'NONE',  ( 0.000000000000000000, 0.000000000000000000, 0.000000000000000000 ) ) ;
#71 = ORIENTED_EDGE ( 'NONE', *, *, #23, .F. ) ;
#72 = DIRECTION ( 'NONE',  ( -0.000000000000000000, -0.000000000000000000, -1.000000000000000000 ) ) ;
#73 = APPROVAL ( #104, 'NEURÈENÝ' ) ;
#74 = EDGE_LOOP ( 'NONE', ( #92, #29, #227, #172 ) ) ;
#75 = ADVANCED_FACE ( 'NONE', ( #49, #115 ), #51, .T. ) ;
#76 = DIRECTION ( 'NONE',  ( 0.000000000000000000, 0.000000000000000000, 1.000000000000000000 ) ) ;
#77 = LOCAL_TIME ( 12, 5, 46.00000000000000000, #64 ) ;
#78 = EDGE_CURVE ( 'NONE', #47, #15, #215, .T. ) ;
#79 = CIRCLE ( 'NONE', #189, 9.000000000000000000 ) ;
#80 = APPROVAL_PERSON_ORGANIZATION ( #250, #73, #167 ) ;
#81 = DIRECTION ( 'NONE',  ( 0.000000000000000000, 0.000000000000000000, 1.000000000000000000 ) ) ;
#82 = DATE_AND_TIME ( #84, #77 ) ;
#83 = APPROVAL_STATUS ( 'not_yet_approved' ) ;
#84 = CALENDAR_DATE ( 2023, 12, 2 ) ;
#85 = EDGE_CURVE ( 'NONE', #18, #212, #87, .T. ) ;
#86 = MECHANICAL_CONTEXT ( 'NONE', #109, 'mechanical' ) ;
#87 = CIRCLE ( 'NONE', #59, 6.000000000000000888 ) ;
#88 = CARTESIAN_POINT ( 'NONE',  ( 0.000000000000000000, 0.000000000000000000, 7.000000000000000000 ) ) ;
#89 = UNCERTAINTY_MEASURE_WITH_UNIT (LENGTH_MEASURE( 1.000000000000000082E-05 ), #165, 'distance_accuracy_value', 'NONE');
#90 = AXIS2_PLACEMENT_3D ( 'NONE', #19, #221, #105 ) ;
#91 = EDGE_CURVE ( 'NONE', #141, #63, #249, .T. ) ;
#92 = ORIENTED_EDGE ( 'NONE', *, *, #220, .F. ) ;
#93 = ADVANCED_FACE ( 'NONE', ( #122 ), #96, .T. ) ;
#94 = EDGE_CURVE ( 'NONE', #135, #48, #232, .T. ) ;
#95 = AXIS2_PLACEMENT_3D ( 'NONE', #196, #203, #16 ) ;
#96 = PLANE ( 'NONE',  #28 ) ;
#97 = CARTESIAN_POINT ( 'NONE',  ( 0.000000000000000000, 0.000000000000000000, 0.000000000000000000 ) ) ;
#98 = FACE_OUTER_BOUND ( 'NONE', #185, .T. ) ;
#99 = APPLICATION_PROTOCOL_DEFINITION ( 'international standard', 'config_control_design', 1994, #133 ) ;
#100 = ADVANCED_FACE ( 'NONE', ( #98 ), #216, .F. ) ;
#101 = APPROVAL_STATUS ( 'not_yet_approved' ) ;
#102 = CC_DESIGN_APPROVAL ( #222, ( #112 ) ) ;
#103 = ADVANCED_FACE ( 'NONE', ( #148 ), #38, .T. ) ;
#104 = APPROVAL_STATUS ( 'not_yet_approved' ) ;
#105 = DIRECTION ( 'NONE',  ( 1.000000000000000000, 0.000000000000000000, 0.000000000000000000 ) ) ;
#106 = ORIENTED_EDGE ( 'NONE', *, *, #31, .T. ) ;
#107 = LINE ( 'NONE', #254, #121 ) ;
#108 = CC_DESIGN_PERSON_AND_ORGANIZATION_ASSIGNMENT ( #52, #2, ( #170 ) ) ;
#109 = APPLICATION_CONTEXT ( 'configuration controlled 3d designs of mechanical parts and assemblies' ) ;
#110 = ORIENTED_EDGE ( 'NONE', *, *, #174, .T. ) ;
#111 = EDGE_LOOP ( 'NONE', ( #8, #110 ) ) ;
#112 = PRODUCT_DEFINITION ( 'NEZNÁMÝ', '', #236, #182 ) ;
#113 = CARTESIAN_POINT ( 'NONE',  ( 6.000000000000000888, 7.347880794884120722E-16, 7.000000000000000000 ) ) ;
#114 = ORIENTED_EDGE ( 'NONE', *, *, #174, .F. ) ;
#115 = FACE_OUTER_BOUND ( 'NONE', #124, .T. ) ;
#116 = ORIENTED_EDGE ( 'NONE', *, *, #223, .F. ) ;
#117 = DIRECTION ( 'NONE',  ( 1.000000000000000000, 0.000000000000000000, 0.000000000000000000 ) ) ;
#118 = CALENDAR_DATE ( 2023, 12, 2 ) ;
#119 = APPROVAL_ROLE ( '' ) ;
#120 = ORIENTED_EDGE ( 'NONE', *, *, #94, .F. ) ;
#121 = VECTOR ( 'NONE', #72, 1000.000000000000000 ) ;
#122 = FACE_OUTER_BOUND ( 'NONE', #111, .T. ) ;
#123 = ORIENTED_EDGE ( 'NONE', *, *, #85, .F. ) ;
#124 = EDGE_LOOP ( 'NONE', ( #106, #197 ) ) ;
#125 = ADVANCED_FACE ( 'NONE', ( #228 ), #138, .T. ) ;
#126 = APPLICATION_PROTOCOL_DEFINITION ( 'international standard', 'config_control_design', 1994, #109 ) ;
#127 = ORIENTED_EDGE ( 'NONE', *, *, #94, .T. ) ;
#128 = CYLINDRICAL_SURFACE ( 'NONE', #225, 9.000000000000000000 ) ;
#129 = CIRCLE ( 'NONE', #248, 6.000000000000000888 ) ;
#130 = DIRECTION ( 'NONE',  ( 1.000000000000000000, 0.000000000000000000, 0.000000000000000000 ) ) ;
#131 = AXIS2_PLACEMENT_3D ( 'NONE', #88, #168, #234 ) ;
#132 = CARTESIAN_POINT ( 'NONE',  ( 0.000000000000000000, 0.000000000000000000, 7.000000000000000000 ) ) ;
#133 = APPLICATION_CONTEXT ( 'configuration controlled 3d designs of mechanical parts and assemblies' ) ;
#134 = VECTOR ( 'NONE', #195, 1000.000000000000000 ) ;
#135 = VERTEX_POINT ( 'NONE', #113 ) ;
#136 = CIRCLE ( 'NONE', #131, 9.000000000000000000 ) ;
#137 = CARTESIAN_POINT ( 'NONE',  ( -6.000000000000000888, 0.000000000000000000, 7.000000000000000000 ) ) ;
#138 = CYLINDRICAL_SURFACE ( 'NONE', #10, 6.000000000000000888 ) ;
#139 = COORDINATED_UNIVERSAL_TIME_OFFSET ( 1, 0, .AHEAD. ) ;
#140 = VECTOR ( 'NONE', #54, 1000.000000000000000 ) ;
#141 = VERTEX_POINT ( 'NONE', #149 ) ;
#142 = APPROVAL_ROLE ( '' ) ;
#143 = LOCAL_TIME ( 12, 5, 46.00000000000000000, #139 ) ;
#144 = EDGE_CURVE ( 'NONE', #48, #135, #129, .T. ) ;
#145 = COORDINATED_UNIVERSAL_TIME_OFFSET ( 1, 0, .AHEAD. ) ;
#146 = CARTESIAN_POINT ( 'NONE',  ( 0.000000000000000000, 0.000000000000000000, 250.0000000000000000 ) ) ;
#147 =( NAMED_UNIT ( * ) PLANE_ANGLE_UNIT ( ) SI_UNIT ( $, .RADIAN. ) );
#148 = FACE_OUTER_BOUND ( 'NONE', #153, .T. ) ;
#149 = CARTESIAN_POINT ( 'NONE',  ( -9.000000000000000000, 0.000000000000000000, 7.000000000000000000 ) ) ;
#150 = DIRECTION ( 'NONE',  ( 0.000000000000000000, 0.000000000000000000, 1.000000000000000000 ) ) ;
#151 = CLOSED_SHELL ( 'NONE', ( #103, #207, #233, #75, #100, #125, #93 ) ) ;
#152 = CIRCLE ( 'NONE', #3, 9.000000000000000000 ) ;
#153 = EDGE_LOOP ( 'NONE', ( #114, #45, #127, #191 ) ) ;
#154 = DIRECTION ( 'NONE',  ( 0.000000000000000000, 0.000000000000000000, 1.000000000000000000 ) ) ;
#155 = CARTESIAN_POINT ( 'NONE',  ( 6.000000000000000888, 7.347880794884120722E-16, 250.0000000000000000 ) ) ;
#156 = DIRECTION ( 'NONE',  ( 1.000000000000000000, 0.000000000000000000, -0.000000000000000000 ) ) ;
#157 = PERSON_AND_ORGANIZATION_ROLE ( 'creator' ) ;
#158 = APPROVAL_PERSON_ORGANIZATION ( #160, #252, #142 ) ;
#159 = ORIENTED_EDGE ( 'NONE', *, *, #223, .T. ) ;
#160 = PERSON_AND_ORGANIZATION ( #180, #12 ) ;
#161 = SHAPE_DEFINITION_REPRESENTATION ( #1, #20 ) ;
#162 = DIRECTION ( 'NONE',  ( -0.000000000000000000, -0.000000000000000000, -1.000000000000000000 ) ) ;
#163 = APPROVAL_DATE_TIME ( #176, #252 ) ;
#164 = ORIENTED_EDGE ( 'NONE', *, *, #144, .F. ) ;
#165 =( LENGTH_UNIT ( ) NAMED_UNIT ( * ) SI_UNIT ( .MILLI., .METRE. ) );
#166 = DIRECTION ( 'NONE',  ( 0.000000000000000000, 0.000000000000000000, 1.000000000000000000 ) ) ;
#167 = APPROVAL_ROLE ( '' ) ;
#168 = DIRECTION ( 'NONE',  ( 0.000000000000000000, 0.000000000000000000, 1.000000000000000000 ) ) ;
#169 = SECURITY_CLASSIFICATION_LEVEL ( 'unclassified' ) ;
#170 = SECURITY_CLASSIFICATION ( '', '', #169 ) ;
#171 = MANIFOLD_SOLID_BREP ( 'Pøidat vysunutím3', #151 ) ;
#172 = ORIENTED_EDGE ( 'NONE', *, *, #91, .F. ) ;
#173 = AXIS2_PLACEMENT_3D ( 'NONE', #132, #6, #156 ) ;
#174 = EDGE_CURVE ( 'NONE', #212, #18, #55, .T. ) ;
#175 = CARTESIAN_POINT ( 'NONE',  ( 9.000000000000000000, 1.102182119232617714E-15, 0.000000000000000000 ) ) ;
#176 = DATE_AND_TIME ( #118, #143 ) ;
#177 = VECTOR ( 'NONE', #162, 1000.000000000000000 ) ;
#178 = DIRECTION ( 'NONE',  ( 0.000000000000000000, 0.000000000000000000, 1.000000000000000000 ) ) ;
#179 = DIRECTION ( 'NONE',  ( 0.000000000000000000, 0.000000000000000000, 1.000000000000000000 ) ) ;
#180 = PERSON ( 'NEURÈENÝ', 'NEURÈENÝ', 'NEURÈENÝ', ('NEURÈENÝ'), ('NEURÈENÝ'), ('NEURÈENÝ') ) ;
#181 = DIRECTION ( 'NONE',  ( 1.000000000000000000, 0.000000000000000000, 0.000000000000000000 ) ) ;
#182 = DESIGN_CONTEXT ( 'detailed design', #133, 'design' ) ;
#183 = APPROVAL_PERSON_ORGANIZATION ( #30, #222, #119 ) ;
#184 = CC_DESIGN_PERSON_AND_ORGANIZATION_ASSIGNMENT ( #241, #157, ( #112 ) ) ;
#185 = EDGE_LOOP ( 'NONE', ( #116, #71 ) ) ;
#186 = DIRECTION ( 'NONE',  ( -0.000000000000000000, -0.000000000000000000, -1.000000000000000000 ) ) ;
#187 = CARTESIAN_POINT ( 'NONE',  ( 6.000000000000000888, 7.347880794884120722E-16, 250.0000000000000000 ) ) ;
#188 = DIRECTION ( 'NONE',  ( 1.000000000000000000, 0.000000000000000000, 0.000000000000000000 ) ) ;
#189 = AXIS2_PLACEMENT_3D ( 'NONE', #237, #76, #130 ) ;
#190 = AXIS2_PLACEMENT_3D ( 'NONE', #97, #179, #117 ) ;
#191 = ORIENTED_EDGE ( 'NONE', *, *, #229, .F. ) ;
#192 = PERSON_AND_ORGANIZATION_ROLE ( 'creator' ) ;
#193 = CALENDAR_DATE ( 2023, 12, 2 ) ;
#194 = AXIS2_PLACEMENT_3D ( 'NONE', #247, #81, #245 ) ;
#195 = DIRECTION ( 'NONE',  ( -0.000000000000000000, -0.000000000000000000, -1.000000000000000000 ) ) ;
#196 = CARTESIAN_POINT ( 'NONE',  ( 0.000000000000000000, 0.000000000000000000, 250.0000000000000000 ) ) ;
#197 = ORIENTED_EDGE ( 'NONE', *, *, #220, .T. ) ;
#198 = DIRECTION ( 'NONE',  ( -0.000000000000000000, -0.000000000000000000, -1.000000000000000000 ) ) ;
#199 = APPROVAL_DATE_TIME ( #82, #73 ) ;
#200 = ORIENTED_EDGE ( 'NONE', *, *, #91, .T. ) ;
#201 = LOCAL_TIME ( 12, 5, 46.00000000000000000, #224 ) ;
#202 = CC_DESIGN_PERSON_AND_ORGANIZATION_ASSIGNMENT ( #68, #35, ( #67 ) ) ;
#203 = DIRECTION ( 'NONE',  ( -0.000000000000000000, -0.000000000000000000, -1.000000000000000000 ) ) ;
#204 = CARTESIAN_POINT ( 'NONE',  ( 0.000000000000000000, 0.000000000000000000, 7.000000000000000000 ) ) ;
#205 = LOCAL_TIME ( 12, 5, 46.00000000000000000, #208 ) ;
#206 = CC_DESIGN_DATE_AND_TIME_ASSIGNMENT ( #9, #11, ( #112 ) ) ;
#207 = ADVANCED_FACE ( 'NONE', ( #22 ), #128, .T. ) ;
#208 = COORDINATED_UNIVERSAL_TIME_OFFSET ( 1, 0, .AHEAD. ) ;
#209 = LOCAL_TIME ( 12, 5, 46.00000000000000000, #145 ) ;
#210 = CYLINDRICAL_SURFACE ( 'NONE', #44, 9.000000000000000000 ) ;
#211 = CC_DESIGN_APPROVAL ( #73, ( #170 ) ) ;
#212 = VERTEX_POINT ( 'NONE', #187 ) ;
#213 = ORIENTED_EDGE ( 'NONE', *, *, #31, .F. ) ;
#214 = CIRCLE ( 'NONE', #34, 9.000000000000000000 ) ;
#215 = LINE ( 'NONE', #62, #177 ) ;
#216 = PLANE ( 'NONE',  #65 ) ;
#217 = DIRECTION ( 'NONE',  ( 1.000000000000000000, 0.000000000000000000, 0.000000000000000000 ) ) ;
#218 = DIRECTION ( 'NONE',  ( 1.000000000000000000, 0.000000000000000000, 0.000000000000000000 ) ) ;
#219 = PERSON_AND_ORGANIZATION ( #180, #12 ) ;
#220 = EDGE_CURVE ( 'NONE', #47, #141, #136, .T. ) ;
#221 = DIRECTION ( 'NONE',  ( 0.000000000000000000, 0.000000000000000000, 1.000000000000000000 ) ) ;
#222 = APPROVAL ( #101, 'NEURÈENÝ' ) ;
#223 = EDGE_CURVE ( 'NONE', #63, #15, #152, .T. ) ;
#224 = COORDINATED_UNIVERSAL_TIME_OFFSET ( 1, 0, .AHEAD. ) ;
#225 = AXIS2_PLACEMENT_3D ( 'NONE', #24, #186, #253 ) ;
#226 = FACE_OUTER_BOUND ( 'NONE', #255, .T. ) ;
#227 = ORIENTED_EDGE ( 'NONE', *, *, #23, .T. ) ;
#228 = FACE_OUTER_BOUND ( 'NONE', #57, .T. ) ;
#229 = EDGE_CURVE ( 'NONE', #18, #48, #107, .T. ) ;
#230 = DIRECTION ( 'NONE',  ( 1.000000000000000000, 0.000000000000000000, -0.000000000000000000 ) ) ;
#231 = PRODUCT_RELATED_PRODUCT_CATEGORY ( 'detail', '', ( #67 ) ) ;
#232 = CIRCLE ( 'NONE', #194, 6.000000000000000888 ) ;
#233 = ADVANCED_FACE ( 'NONE', ( #226 ), #210, .T. ) ;
#234 = DIRECTION ( 'NONE',  ( 1.000000000000000000, 0.000000000000000000, 0.000000000000000000 ) ) ;
#235 = CC_DESIGN_PERSON_AND_ORGANIZATION_ASSIGNMENT ( #4, #192, ( #236 ) ) ;
#236 = PRODUCT_DEFINITION_FORMATION_WITH_SPECIFIED_SOURCE ( 'LIBOVOLNÝ', '', #67, .NOT_KNOWN. ) ;
#237 = CARTESIAN_POINT ( 'NONE',  ( 0.000000000000000000, 0.000000000000000000, 0.000000000000000000 ) ) ;
#238 = CARTESIAN_POINT ( 'NONE',  ( -9.000000000000000000, 0.000000000000000000, 0.000000000000000000 ) ) ;
#239 = PERSON_AND_ORGANIZATION_ROLE ( 'design_supplier' ) ;
#240 = CARTESIAN_POINT ( 'NONE',  ( 0.000000000000000000, 0.000000000000000000, 250.0000000000000000 ) ) ;
#241 = PERSON_AND_ORGANIZATION ( #180, #12 ) ;
#242 = DATE_TIME_ROLE ( 'classification_date' ) ;
#243 = ORIENTED_EDGE ( 'NONE', *, *, #41, .F. ) ;
#244 = DIRECTION ( 'NONE',  ( -1.000000000000000000, 0.000000000000000000, 0.000000000000000000 ) ) ;
#245 = DIRECTION ( 'NONE',  ( 1.000000000000000000, 0.000000000000000000, 0.000000000000000000 ) ) ;
#246 = DATE_AND_TIME ( #32, #209 ) ;
#247 = CARTESIAN_POINT ( 'NONE',  ( 0.000000000000000000, 0.000000000000000000, 7.000000000000000000 ) ) ;
#248 = AXIS2_PLACEMENT_3D ( 'NONE', #204, #154, #217 ) ;
#249 = LINE ( 'NONE', #43, #134 ) ;
#250 = PERSON_AND_ORGANIZATION ( #180, #12 ) ;
#251 = ORIENTED_EDGE ( 'NONE', *, *, #144, .T. ) ;
#252 = APPROVAL ( #83, 'NEURÈENÝ' ) ;
#253 = DIRECTION ( 'NONE',  ( -1.000000000000000000, 0.000000000000000000, 0.000000000000000000 ) ) ;
#254 = CARTESIAN_POINT ( 'NONE',  ( -6.000000000000000888, 0.000000000000000000, 250.0000000000000000 ) ) ;
#255 = EDGE_LOOP ( 'NONE', ( #69, #213, #200, #159 ) ) ;
ENDSEC;
END-ISO-10303-21;
