ISO-10303-21;
HEADER;
FILE_DESCRIPTION (( 'STEP AP203' ),
    '1' );
FILE_NAME ('8213.STEP',
    '2022-07-07T10:22:50',
    ( '' ),
    ( '' ),
    'SwSTEP 2.0',
    'SolidWorks 2019',
    '' );
FILE_SCHEMA (( 'CONFIG_CONTROL_DESIGN' ));
ENDSEC;

DATA;
#1 = DATE_AND_TIME ( #238, #37 ) ;
#2 = ORIENTED_EDGE ( 'NONE', *, *, #62, .T. ) ;
#3 = VECTOR ( 'NONE', #226, 1000.000000000000000 ) ;
#4 = ADVANCED_FACE ( 'NONE', ( #153 ), #32, .T. ) ;
#5 = DIRECTION ( 'NONE',  ( 1.000000000000000000, 0.000000000000000000, -0.000000000000000000 ) ) ;
#6 = DIRECTION ( 'NONE',  ( 1.000000000000000000, 0.000000000000000000, 0.000000000000000000 ) ) ;
#7 = EDGE_CURVE ( 'NONE', #265, #146, #96, .T. ) ;
#8 = CC_DESIGN_APPROVAL ( #104, ( #200 ) ) ;
#9 = ORIENTED_EDGE ( 'NONE', *, *, #196, .F. ) ;
#10 = FACE_OUTER_BOUND ( 'NONE', #285, .T. ) ;
#11 = CIRCLE ( 'NONE', #221, 2.100000000000000089 ) ;
#12 = CYLINDRICAL_SURFACE ( 'NONE', #42, 4.000000000000000000 ) ;
#13 = CARTESIAN_POINT ( 'NONE',  ( -2.100000000000000089, 0.000000000000000000, 803.0000000000000000 ) ) ;
#14 = DIRECTION ( 'NONE',  ( 1.000000000000000000, 0.000000000000000000, 0.000000000000000000 ) ) ;
#15 = CARTESIAN_POINT ( 'NONE',  ( -4.000000000000000000, 0.000000000000000000, 0.000000000000000000 ) ) ;
#16 = AXIS2_PLACEMENT_3D ( 'NONE', #87, #68, #165 ) ;
#17 = FACE_OUTER_BOUND ( 'NONE', #266, .T. ) ;
#18 = DIRECTION ( 'NONE',  ( 1.000000000000000000, 0.000000000000000000, -0.000000000000000000 ) ) ;
#19 = CLOSED_SHELL ( 'NONE', ( #258, #4, #203, #56, #88, #181, #53, #66, #125 ) ) ;
#20 = PERSON_AND_ORGANIZATION ( #245, #281 ) ;
#21 = VERTEX_POINT ( 'NONE', #269 ) ;
#22 = CALENDAR_DATE ( 2022, 7, 7 ) ;
#23 = PERSON_AND_ORGANIZATION_ROLE ( 'creator' ) ;
#24 = VERTEX_POINT ( 'NONE', #272 ) ;
#25 = AXIS2_PLACEMENT_3D ( 'NONE', #271, #293, #6 ) ;
#26 = APPROVAL_DATE_TIME ( #1, #97 ) ;
#27 = SECURITY_CLASSIFICATION ( '', '', #46 ) ;
#28 = ORIENTED_EDGE ( 'NONE', *, *, #210, .F. ) ;
#29 = FACE_BOUND ( 'NONE', #217, .T. ) ;
#30 = TOROIDAL_SURFACE ( 'NONE', #172, 2.300000000000000266, 0.2000000000000000111 ) ;
#31 = ORIENTED_EDGE ( 'NONE', *, *, #253, .F. ) ;
#32 = CYLINDRICAL_SURFACE ( 'NONE', #47, 2.100000000000000089 ) ;
#33 = CIRCLE ( 'NONE', #25, 2.100000000000000089 ) ;
#34 = PLANE ( 'NONE',  #108 ) ;
#35 = MANIFOLD_SOLID_BREP ( 'Zaoblit1', #19 ) ;
#36 = CIRCLE ( 'NONE', #65, 4.000000000000000000 ) ;
#37 = LOCAL_TIME ( 12, 22, 50.00000000000000000, #264 ) ;
#38 = CARTESIAN_POINT ( 'NONE',  ( 0.000000000000000000, 0.000000000000000000, 3.199999999999980638 ) ) ;
#39 = EDGE_CURVE ( 'NONE', #154, #150, #33, .T. ) ;
#40 = DIRECTION ( 'NONE',  ( -0.000000000000000000, -0.000000000000000000, -1.000000000000000000 ) ) ;
#41 = CARTESIAN_POINT ( 'NONE',  ( 0.000000000000000000, 0.000000000000000000, 3.000000000000000000 ) ) ;
#42 = AXIS2_PLACEMENT_3D ( 'NONE', #156, #107, #198 ) ;
#43 = CIRCLE ( 'NONE', #124, 4.000000000000000000 ) ;
#44 = CARTESIAN_POINT ( 'NONE',  ( 0.000000000000000000, 0.000000000000000000, 3.000000000000000000 ) ) ;
#45 = LOCAL_TIME ( 12, 22, 50.00000000000000000, #260 ) ;
#46 = SECURITY_CLASSIFICATION_LEVEL ( 'unclassified' ) ;
#47 = AXIS2_PLACEMENT_3D ( 'NONE', #106, #173, #197 ) ;
#48 = CC_DESIGN_PERSON_AND_ORGANIZATION_ASSIGNMENT ( #229, #73, ( #27 ) ) ;
#49 = APPROVAL_STATUS ( 'not_yet_approved' ) ;
#50 = EDGE_CURVE ( 'NONE', #193, #194, #70, .T. ) ;
#51 = VERTEX_POINT ( 'NONE', #273 ) ;
#52 = ORIENTED_EDGE ( 'NONE', *, *, #7, .T. ) ;
#53 = ADVANCED_FACE ( 'NONE', ( #59 ), #195, .T. ) ;
#54 = ORIENTED_EDGE ( 'NONE', *, *, #210, .T. ) ;
#55 = EDGE_LOOP ( 'NONE', ( #131, #305, #122, #289 ) ) ;
#56 = ADVANCED_FACE ( 'NONE', ( #10 ), #12, .T. ) ;
#57 = ORIENTED_EDGE ( 'NONE', *, *, #253, .T. ) ;
#58 = EDGE_CURVE ( 'NONE', #61, #194, #63, .T. ) ;
#59 = FACE_OUTER_BOUND ( 'NONE', #129, .T. ) ;
#60 = AXIS2_PLACEMENT_3D ( 'NONE', #255, #89, #276 ) ;
#61 = VERTEX_POINT ( 'NONE', #175 ) ;
#62 = EDGE_CURVE ( 'NONE', #150, #154, #179, .T. ) ;
#63 = LINE ( 'NONE', #294, #118 ) ;
#64 = PLANE ( 'NONE',  #279 ) ;
#65 = AXIS2_PLACEMENT_3D ( 'NONE', #91, #112, #67 ) ;
#66 = ADVANCED_FACE ( 'NONE', ( #132 ), #34, .T. ) ;
#67 = DIRECTION ( 'NONE',  ( 1.000000000000000000, 0.000000000000000000, 0.000000000000000000 ) ) ;
#68 = DIRECTION ( 'NONE',  ( 0.000000000000000000, 0.000000000000000000, 1.000000000000000000 ) ) ;
#69 = CARTESIAN_POINT ( 'NONE',  ( -2.100000000000000089, 0.000000000000000000, 803.0000000000000000 ) ) ;
#70 = CIRCLE ( 'NONE', #239, 4.000000000000000000 ) ;
#71 = DIRECTION ( 'NONE',  ( -1.000000000000000000, 0.000000000000000000, 0.000000000000000000 ) ) ;
#72 = CALENDAR_DATE ( 2022, 7, 7 ) ;
#73 = PERSON_AND_ORGANIZATION_ROLE ( 'classification_officer' ) ;
#74 = DIRECTION ( 'NONE',  ( 1.000000000000000000, 0.000000000000000000, 0.000000000000000000 ) ) ;
#75 = ORIENTED_EDGE ( 'NONE', *, *, #306, .T. ) ;
#76 = PERSON_AND_ORGANIZATION_ROLE ( 'design_owner' ) ;
#77 = PERSON_AND_ORGANIZATION_ROLE ( 'creator' ) ;
#78 = DIRECTION ( 'NONE',  ( -0.000000000000000000, -0.000000000000000000, -1.000000000000000000 ) ) ;
#79 = AXIS2_PLACEMENT_3D ( 'NONE', #302, #184, #280 ) ;
#80 = PRODUCT_DEFINITION_FORMATION_WITH_SPECIFIED_SOURCE ( 'LIBOVOLNÝ', '', #218, .NOT_KNOWN. ) ;
#81 = CARTESIAN_POINT ( 'NONE',  ( 0.000000000000000000, 0.000000000000000000, 803.0000000000000000 ) ) ;
#82 = EDGE_LOOP ( 'NONE', ( #103, #247 ) ) ;
#83 = DIRECTION ( 'NONE',  ( -0.000000000000000000, -0.000000000000000000, -1.000000000000000000 ) ) ;
#84 = LOCAL_TIME ( 12, 22, 50.00000000000000000, #144 ) ;
#85 = ORIENTED_EDGE ( 'NONE', *, *, #196, .T. ) ;
#86 = DIRECTION ( 'NONE',  ( 1.000000000000000000, 0.000000000000000000, 0.000000000000000000 ) ) ;
#87 = CARTESIAN_POINT ( 'NONE',  ( 0.000000000000000000, 0.000000000000000000, 0.000000000000000000 ) ) ;
#88 = ADVANCED_FACE ( 'NONE', ( #29, #17 ), #64, .T. ) ;
#89 = DIRECTION ( 'NONE',  ( 0.000000000000000000, 0.000000000000000000, 1.000000000000000000 ) ) ;
#90 = CARTESIAN_POINT ( 'NONE',  ( 4.000000000000000000, 4.898587196589412829E-16, 0.000000000000000000 ) ) ;
#91 = CARTESIAN_POINT ( 'NONE',  ( 0.000000000000000000, 0.000000000000000000, 3.000000000000000000 ) ) ;
#92 =( GEOMETRIC_REPRESENTATION_CONTEXT ( 3 ) GLOBAL_UNCERTAINTY_ASSIGNED_CONTEXT ( ( #98 ) ) GLOBAL_UNIT_ASSIGNED_CONTEXT ( ( #117, #147, #209 ) ) REPRESENTATION_CONTEXT ( 'NONE', 'WORKASPACE' ) );
#93 = CC_DESIGN_PERSON_AND_ORGANIZATION_ASSIGNMENT ( #263, #23, ( #200 ) ) ;
#94 = ORIENTED_EDGE ( 'NONE', *, *, #62, .F. ) ;
#95 = PERSON_AND_ORGANIZATION ( #245, #281 ) ;
#96 = CIRCLE ( 'NONE', #136, 0.2000000000000000944 ) ;
#97 = APPROVAL ( #169, 'NEURÈENÝ' ) ;
#98 = UNCERTAINTY_MEASURE_WITH_UNIT (LENGTH_MEASURE( 1.000000000000000082E-05 ), #117, 'distance_accuracy_value', 'NONE');
#99 = DATE_AND_TIME ( #235, #45 ) ;
#100 = DATE_AND_TIME ( #139, #268 ) ;
#101 = EDGE_CURVE ( 'NONE', #265, #51, #11, .T. ) ;
#102 = ORIENTED_EDGE ( 'NONE', *, *, #152, .T. ) ;
#103 = ORIENTED_EDGE ( 'NONE', *, *, #50, .F. ) ;
#104 = APPROVAL ( #171, 'NEURÈENÝ' ) ;
#105 = CIRCLE ( 'NONE', #16, 4.000000000000000000 ) ;
#106 = CARTESIAN_POINT ( 'NONE',  ( 0.000000000000000000, 0.000000000000000000, 803.0000000000000000 ) ) ;
#107 = DIRECTION ( 'NONE',  ( -0.000000000000000000, -0.000000000000000000, -1.000000000000000000 ) ) ;
#108 = AXIS2_PLACEMENT_3D ( 'NONE', #270, #214, #5 ) ;
#109 = DIRECTION ( 'NONE',  ( 0.000000000000000000, -1.000000000000000000, 0.000000000000000000 ) ) ;
#110 = DIRECTION ( 'NONE',  ( -0.000000000000000000, -0.000000000000000000, -1.000000000000000000 ) ) ;
#111 = DIRECTION ( 'NONE',  ( 1.000000000000000000, 0.000000000000000000, 0.000000000000000000 ) ) ;
#112 = DIRECTION ( 'NONE',  ( 0.000000000000000000, 0.000000000000000000, 1.000000000000000000 ) ) ;
#113 = CC_DESIGN_APPROVAL ( #267, ( #27 ) ) ;
#114 = CARTESIAN_POINT ( 'NONE',  ( 2.100000000000000089, 2.571758278209441957E-16, 803.0000000000000000 ) ) ;
#115 = EDGE_CURVE ( 'NONE', #154, #265, #201, .T. ) ;
#116 = DIRECTION ( 'NONE',  ( 1.000000000000000000, 0.000000000000000000, 0.000000000000000000 ) ) ;
#117 =( LENGTH_UNIT ( ) NAMED_UNIT ( * ) SI_UNIT ( .MILLI., .METRE. ) );
#118 = VECTOR ( 'NONE', #83, 1000.000000000000000 ) ;
#119 = PERSON_AND_ORGANIZATION_ROLE ( 'design_supplier' ) ;
#120 = ORIENTED_EDGE ( 'NONE', *, *, #7, .F. ) ;
#121 = APPROVAL_ROLE ( '' ) ;
#122 = ORIENTED_EDGE ( 'NONE', *, *, #233, .T. ) ;
#123 = PERSON_AND_ORGANIZATION ( #245, #281 ) ;
#124 = AXIS2_PLACEMENT_3D ( 'NONE', #41, #259, #204 ) ;
#125 = ADVANCED_FACE ( 'NONE', ( #225 ), #30, .F. ) ;
#126 = DATE_AND_TIME ( #22, #252 ) ;
#127 = ORIENTED_EDGE ( 'NONE', *, *, #162, .T. ) ;
#128 = DIRECTION ( 'NONE',  ( 0.000000000000000000, 0.000000000000000000, 1.000000000000000000 ) ) ;
#129 = EDGE_LOOP ( 'NONE', ( #148, #94, #127, #54 ) ) ;
#130 = EDGE_CURVE ( 'NONE', #61, #24, #36, .T. ) ;
#131 = ORIENTED_EDGE ( 'NONE', *, *, #130, .F. ) ;
#132 = FACE_OUTER_BOUND ( 'NONE', #212, .T. ) ;
#133 = PLANE ( 'NONE',  #257 ) ;
#134 = FACE_OUTER_BOUND ( 'NONE', #55, .T. ) ;
#135 = DIRECTION ( 'NONE',  ( 0.000000000000000000, 0.000000000000000000, 1.000000000000000000 ) ) ;
#136 = AXIS2_PLACEMENT_3D ( 'NONE', #248, #109, #244 ) ;
#137 = DIRECTION ( 'NONE',  ( -0.000000000000000000, -0.000000000000000000, -1.000000000000000000 ) ) ;
#138 = DIRECTION ( 'NONE',  ( -0.000000000000000000, -0.000000000000000000, -1.000000000000000000 ) ) ;
#139 = CALENDAR_DATE ( 2022, 7, 7 ) ;
#140 = APPROVAL_ROLE ( '' ) ;
#141 = AXIS2_PLACEMENT_3D ( 'NONE', #251, #110, #71 ) ;
#142 = EDGE_CURVE ( 'NONE', #24, #193, #208, .T. ) ;
#143 = APPROVAL_ROLE ( '' ) ;
#144 = COORDINATED_UNIVERSAL_TIME_OFFSET ( 1, 0, .AHEAD. ) ;
#145 = CC_DESIGN_PERSON_AND_ORGANIZATION_ASSIGNMENT ( #95, #76, ( #218 ) ) ;
#146 = VERTEX_POINT ( 'NONE', #297 ) ;
#147 =( NAMED_UNIT ( * ) PLANE_ANGLE_UNIT ( ) SI_UNIT ( $, .RADIAN. ) );
#148 = ORIENTED_EDGE ( 'NONE', *, *, #115, .F. ) ;
#149 = APPROVAL_DATE_TIME ( #126, #267 ) ;
#150 = VERTEX_POINT ( 'NONE', #13 ) ;
#151 = ORIENTED_EDGE ( 'NONE', *, *, #152, .F. ) ;
#152 = EDGE_CURVE ( 'NONE', #146, #21, #176, .T. ) ;
#153 = FACE_OUTER_BOUND ( 'NONE', #230, .T. ) ;
#154 = VERTEX_POINT ( 'NONE', #278 ) ;
#155 = AXIS2_PLACEMENT_3D ( 'NONE', #38, #224, #14 ) ;
#156 = CARTESIAN_POINT ( 'NONE',  ( 0.000000000000000000, 0.000000000000000000, 3.000000000000000000 ) ) ;
#157 = ORIENTED_EDGE ( 'NONE', *, *, #115, .T. ) ;
#158 = DIRECTION ( 'NONE',  ( 1.000000000000000000, 0.000000000000000000, -0.000000000000000000 ) ) ;
#159 = FACE_OUTER_BOUND ( 'NONE', #82, .T. ) ;
#160 = CARTESIAN_POINT ( 'NONE',  ( 0.000000000000000000, 0.000000000000000000, 3.000000000000000000 ) ) ;
#161 = DIRECTION ( 'NONE',  ( 0.000000000000000000, 0.000000000000000000, 1.000000000000000000 ) ) ;
#162 = EDGE_CURVE ( 'NONE', #150, #51, #182, .T. ) ;
#163 = AXIS2_PLACEMENT_3D ( 'NONE', #160, #137, #303 ) ;
#164 = APPROVAL_PERSON_ORGANIZATION ( #20, #267, #143 ) ;
#165 = DIRECTION ( 'NONE',  ( 1.000000000000000000, 0.000000000000000000, 0.000000000000000000 ) ) ;
#166 = DATE_TIME_ROLE ( 'creation_date' ) ;
#167 = APPLICATION_PROTOCOL_DEFINITION ( 'international standard', 'config_control_design', 1994, #304 ) ;
#168 = PERSON_AND_ORGANIZATION ( #245, #281 ) ;
#169 = APPROVAL_STATUS ( 'not_yet_approved' ) ;
#170 = ORIENTED_EDGE ( 'NONE', *, *, #101, .F. ) ;
#171 = APPROVAL_STATUS ( 'not_yet_approved' ) ;
#172 = AXIS2_PLACEMENT_3D ( 'NONE', #256, #227, #116 ) ;
#173 = DIRECTION ( 'NONE',  ( -0.000000000000000000, -0.000000000000000000, -1.000000000000000000 ) ) ;
#174 = DIRECTION ( 'NONE',  ( 1.000000000000000000, 0.000000000000000000, 0.000000000000000000 ) ) ;
#175 = CARTESIAN_POINT ( 'NONE',  ( 4.000000000000000000, 4.898587196589412829E-16, 3.000000000000000000 ) ) ;
#176 = CIRCLE ( 'NONE', #205, 2.300000000000000266 ) ;
#177 = ORIENTED_EDGE ( 'NONE', *, *, #142, .T. ) ;
#178 = CARTESIAN_POINT ( 'NONE',  ( -4.000000000000000000, 0.000000000000000000, 3.000000000000000000 ) ) ;
#179 = CIRCLE ( 'NONE', #237, 2.100000000000000089 ) ;
#180 = CARTESIAN_POINT ( 'NONE',  ( 2.100000000000000089, 2.571758278209441957E-16, 3.199999999999980638 ) ) ;
#181 = ADVANCED_FACE ( 'NONE', ( #159 ), #133, .F. ) ;
#182 = LINE ( 'NONE', #69, #286 ) ;
#183 = CARTESIAN_POINT ( 'NONE',  ( 0.000000000000000000, 0.000000000000000000, 3.000000000000000000 ) ) ;
#184 = DIRECTION ( 'NONE',  ( 1.224646799147353207E-16, 1.000000000000000000, -0.000000000000000000 ) ) ;
#185 = MECHANICAL_CONTEXT ( 'NONE', #304, 'mechanical' ) ;
#186 = ORIENTED_EDGE ( 'NONE', *, *, #39, .F. ) ;
#187 = APPROVAL_DATE_TIME ( #261, #104 ) ;
#188 = PERSON_AND_ORGANIZATION ( #245, #281 ) ;
#189 = TOROIDAL_SURFACE ( 'NONE', #60, 2.300000000000000266, 0.2000000000000000111 ) ;
#190 = ORIENTED_EDGE ( 'NONE', *, *, #50, .T. ) ;
#191 = CC_DESIGN_DATE_AND_TIME_ASSIGNMENT ( #100, #211, ( #27 ) ) ;
#192 = DIRECTION ( 'NONE',  ( 0.000000000000000000, 0.000000000000000000, 1.000000000000000000 ) ) ;
#193 = VERTEX_POINT ( 'NONE', #15 ) ;
#194 = VERTEX_POINT ( 'NONE', #90 ) ;
#195 = CYLINDRICAL_SURFACE ( 'NONE', #298, 2.100000000000000089 ) ;
#196 = EDGE_CURVE ( 'NONE', #51, #21, #275, .T. ) ;
#197 = DIRECTION ( 'NONE',  ( -1.000000000000000000, 0.000000000000000000, 0.000000000000000000 ) ) ;
#198 = DIRECTION ( 'NONE',  ( -1.000000000000000000, 0.000000000000000000, 0.000000000000000000 ) ) ;
#199 = ORIENTED_EDGE ( 'NONE', *, *, #58, .F. ) ;
#200 = PRODUCT_DEFINITION ( 'NEZNÁMÝ', '', #80, #236 ) ;
#201 = LINE ( 'NONE', #114, #3 ) ;
#202 = CYLINDRICAL_SURFACE ( 'NONE', #141, 4.000000000000000000 ) ;
#203 = ADVANCED_FACE ( 'NONE', ( #134 ), #202, .T. ) ;
#204 = DIRECTION ( 'NONE',  ( 1.000000000000000000, 0.000000000000000000, 0.000000000000000000 ) ) ;
#205 = AXIS2_PLACEMENT_3D ( 'NONE', #44, #40, #86 ) ;
#206 = CC_DESIGN_APPROVAL ( #97, ( #80 ) ) ;
#207 = CARTESIAN_POINT ( 'NONE',  ( 0.000000000000000000, 0.000000000000000000, 3.199999999999980638 ) ) ;
#208 = LINE ( 'NONE', #178, #231 ) ;
#209 =( NAMED_UNIT ( * ) SI_UNIT ( $, .STERADIAN. ) SOLID_ANGLE_UNIT ( ) );
#210 = EDGE_CURVE ( 'NONE', #51, #265, #246, .T. ) ;
#211 = DATE_TIME_ROLE ( 'classification_date' ) ;
#212 = EDGE_LOOP ( 'NONE', ( #2, #240 ) ) ;
#213 = COORDINATED_UNIVERSAL_TIME_OFFSET ( 1, 0, .AHEAD. ) ;
#214 = DIRECTION ( 'NONE',  ( 0.000000000000000000, 0.000000000000000000, 1.000000000000000000 ) ) ;
#215 = ORIENTED_EDGE ( 'NONE', *, *, #306, .F. ) ;
#216 = APPROVAL_PERSON_ORGANIZATION ( #188, #97, #121 ) ;
#217 = EDGE_LOOP ( 'NONE', ( #102, #75 ) ) ;
#218 = PRODUCT ( '8213', '8213', '', ( #185 ) ) ;
#219 = DIRECTION ( 'NONE',  ( -1.000000000000000000, 0.000000000000000000, 0.000000000000000000 ) ) ;
#220 = DIRECTION ( 'NONE',  ( 1.000000000000000000, 0.000000000000000000, 0.000000000000000000 ) ) ;
#221 = AXIS2_PLACEMENT_3D ( 'NONE', #207, #254, #111 ) ;
#222 = FACE_OUTER_BOUND ( 'NONE', #287, .T. ) ;
#223 = APPROVAL_PERSON_ORGANIZATION ( #168, #104, #140 ) ;
#224 = DIRECTION ( 'NONE',  ( 0.000000000000000000, 0.000000000000000000, 1.000000000000000000 ) ) ;
#225 = FACE_OUTER_BOUND ( 'NONE', #288, .T. ) ;
#226 = DIRECTION ( 'NONE',  ( -0.000000000000000000, -0.000000000000000000, -1.000000000000000000 ) ) ;
#227 = DIRECTION ( 'NONE',  ( 0.000000000000000000, 0.000000000000000000, 1.000000000000000000 ) ) ;
#228 = PRODUCT_RELATED_PRODUCT_CATEGORY ( 'detail', '', ( #218 ) ) ;
#229 = PERSON_AND_ORGANIZATION ( #245, #281 ) ;
#230 = EDGE_LOOP ( 'NONE', ( #186, #157, #282, #243 ) ) ;
#231 = VECTOR ( 'NONE', #274, 1000.000000000000000 ) ;
#232 = COORDINATED_UNIVERSAL_TIME_OFFSET ( 1, 0, .AHEAD. ) ;
#233 = EDGE_CURVE ( 'NONE', #194, #193, #105, .T. ) ;
#234 = APPLICATION_CONTEXT ( 'configuration controlled 3d designs of mechanical parts and assemblies' ) ;
#235 = CALENDAR_DATE ( 2022, 7, 7 ) ;
#236 = DESIGN_CONTEXT ( 'detailed design', #234, 'design' ) ;
#237 = AXIS2_PLACEMENT_3D ( 'NONE', #81, #250, #220 ) ;
#238 = CALENDAR_DATE ( 2022, 7, 7 ) ;
#239 = AXIS2_PLACEMENT_3D ( 'NONE', #296, #128, #174 ) ;
#240 = ORIENTED_EDGE ( 'NONE', *, *, #39, .T. ) ;
#241 = CC_DESIGN_SECURITY_CLASSIFICATION ( #27, ( #80 ) ) ;
#242 = SHAPE_DEFINITION_REPRESENTATION ( #277, #299 ) ;
#243 = ORIENTED_EDGE ( 'NONE', *, *, #162, .F. ) ;
#244 = DIRECTION ( 'NONE',  ( 0.000000000000000000, 0.000000000000000000, -1.000000000000000000 ) ) ;
#245 = PERSON ( 'NEURÈENÝ', 'NEURÈENÝ', 'NEURÈENÝ', ('NEURÈENÝ'), ('NEURÈENÝ'), ('NEURÈENÝ') ) ;
#246 = CIRCLE ( 'NONE', #155, 2.100000000000000089 ) ;
#247 = ORIENTED_EDGE ( 'NONE', *, *, #233, .F. ) ;
#248 = CARTESIAN_POINT ( 'NONE',  ( 2.300000000000000266, 0.000000000000000000, 3.199999999999980638 ) ) ;
#249 = CC_DESIGN_PERSON_AND_ORGANIZATION_ASSIGNMENT ( #123, #119, ( #80 ) ) ;
#250 = DIRECTION ( 'NONE',  ( 0.000000000000000000, 0.000000000000000000, 1.000000000000000000 ) ) ;
#251 = CARTESIAN_POINT ( 'NONE',  ( 0.000000000000000000, 0.000000000000000000, 3.000000000000000000 ) ) ;
#252 = LOCAL_TIME ( 12, 22, 50.00000000000000000, #232 ) ;
#253 = EDGE_CURVE ( 'NONE', #24, #61, #43, .T. ) ;
#254 = DIRECTION ( 'NONE',  ( 0.000000000000000000, 0.000000000000000000, 1.000000000000000000 ) ) ;
#255 = CARTESIAN_POINT ( 'NONE',  ( 0.000000000000000000, 0.000000000000000000, 3.199999999999980638 ) ) ;
#256 = CARTESIAN_POINT ( 'NONE',  ( 0.000000000000000000, 0.000000000000000000, 3.199999999999980638 ) ) ;
#257 = AXIS2_PLACEMENT_3D ( 'NONE', #300, #135, #158 ) ;
#258 = ADVANCED_FACE ( 'NONE', ( #222 ), #189, .F. ) ;
#259 = DIRECTION ( 'NONE',  ( 0.000000000000000000, 0.000000000000000000, 1.000000000000000000 ) ) ;
#260 = COORDINATED_UNIVERSAL_TIME_OFFSET ( 1, 0, .AHEAD. ) ;
#261 = DATE_AND_TIME ( #72, #84 ) ;
#262 = ORIENTED_EDGE ( 'NONE', *, *, #130, .T. ) ;
#263 = PERSON_AND_ORGANIZATION ( #245, #281 ) ;
#264 = COORDINATED_UNIVERSAL_TIME_OFFSET ( 1, 0, .AHEAD. ) ;
#265 = VERTEX_POINT ( 'NONE', #180 ) ;
#266 = EDGE_LOOP ( 'NONE', ( #57, #262 ) ) ;
#267 = APPROVAL ( #49, 'NEURÈENÝ' ) ;
#268 = LOCAL_TIME ( 12, 22, 50.00000000000000000, #213 ) ;
#269 = CARTESIAN_POINT ( 'NONE',  ( -2.300000000000000266, 2.816687638038912549E-16, 2.999999999999990674 ) ) ;
#270 = CARTESIAN_POINT ( 'NONE',  ( 0.000000000000000000, 0.000000000000000000, 803.0000000000000000 ) ) ;
#271 = CARTESIAN_POINT ( 'NONE',  ( 0.000000000000000000, 0.000000000000000000, 803.0000000000000000 ) ) ;
#272 = CARTESIAN_POINT ( 'NONE',  ( -4.000000000000000000, 0.000000000000000000, 3.000000000000000000 ) ) ;
#273 = CARTESIAN_POINT ( 'NONE',  ( -2.100000000000000089, 0.000000000000000000, 3.199999999999980638 ) ) ;
#274 = DIRECTION ( 'NONE',  ( -0.000000000000000000, -0.000000000000000000, -1.000000000000000000 ) ) ;
#275 = CIRCLE ( 'NONE', #79, 0.2000000000000000944 ) ;
#276 = DIRECTION ( 'NONE',  ( 1.000000000000000000, 0.000000000000000000, 0.000000000000000000 ) ) ;
#277 = PRODUCT_DEFINITION_SHAPE ( 'NONE', 'NONE',  #200 ) ;
#278 = CARTESIAN_POINT ( 'NONE',  ( 2.100000000000000089, 2.571758278209441957E-16, 803.0000000000000000 ) ) ;
#279 = AXIS2_PLACEMENT_3D ( 'NONE', #183, #161, #18 ) ;
#280 = DIRECTION ( 'NONE',  ( -1.000000000000000000, 1.224646799147353207E-16, 0.000000000000000000 ) ) ;
#281 = ORGANIZATION ( 'NEURÈENÝ', 'NEURÈENÝ', '' ) ;
#282 = ORIENTED_EDGE ( 'NONE', *, *, #101, .T. ) ;
#283 = APPLICATION_PROTOCOL_DEFINITION ( 'international standard', 'config_control_design', 1994, #234 ) ;
#284 = CARTESIAN_POINT ( 'NONE',  ( 0.000000000000000000, 0.000000000000000000, 0.000000000000000000 ) ) ;
#285 = EDGE_LOOP ( 'NONE', ( #199, #31, #177, #190 ) ) ;
#286 = VECTOR ( 'NONE', #138, 1000.000000000000000 ) ;
#287 = EDGE_LOOP ( 'NONE', ( #28, #85, #151, #120 ) ) ;
#288 = EDGE_LOOP ( 'NONE', ( #9, #170, #52, #215 ) ) ;
#289 = ORIENTED_EDGE ( 'NONE', *, *, #142, .F. ) ;
#290 = CC_DESIGN_DATE_AND_TIME_ASSIGNMENT ( #99, #166, ( #200 ) ) ;
#291 = AXIS2_PLACEMENT_3D ( 'NONE', #284, #192, #74 ) ;
#292 = CARTESIAN_POINT ( 'NONE',  ( 0.000000000000000000, 0.000000000000000000, 803.0000000000000000 ) ) ;
#293 = DIRECTION ( 'NONE',  ( 0.000000000000000000, 0.000000000000000000, 1.000000000000000000 ) ) ;
#294 = CARTESIAN_POINT ( 'NONE',  ( 4.000000000000000000, 4.898587196589412829E-16, 3.000000000000000000 ) ) ;
#295 = CIRCLE ( 'NONE', #163, 2.300000000000000266 ) ;
#296 = CARTESIAN_POINT ( 'NONE',  ( 0.000000000000000000, 0.000000000000000000, 0.000000000000000000 ) ) ;
#297 = CARTESIAN_POINT ( 'NONE',  ( 2.300000000000000266, 0.000000000000000000, 2.999999999999990674 ) ) ;
#298 = AXIS2_PLACEMENT_3D ( 'NONE', #292, #78, #219 ) ;
#299 = ADVANCED_BREP_SHAPE_REPRESENTATION ( '8213', ( #35, #291 ), #92 ) ;
#300 = CARTESIAN_POINT ( 'NONE',  ( 0.000000000000000000, 0.000000000000000000, 0.000000000000000000 ) ) ;
#301 = CC_DESIGN_PERSON_AND_ORGANIZATION_ASSIGNMENT ( #307, #77, ( #80 ) ) ;
#302 = CARTESIAN_POINT ( 'NONE',  ( -2.300000000000000266, 2.816687638038912549E-16, 3.199999999999980638 ) ) ;
#303 = DIRECTION ( 'NONE',  ( 1.000000000000000000, 0.000000000000000000, 0.000000000000000000 ) ) ;
#304 = APPLICATION_CONTEXT ( 'configuration controlled 3d designs of mechanical parts and assemblies' ) ;
#305 = ORIENTED_EDGE ( 'NONE', *, *, #58, .T. ) ;
#306 = EDGE_CURVE ( 'NONE', #21, #146, #295, .T. ) ;
#307 = PERSON_AND_ORGANIZATION ( #245, #281 ) ;
ENDSEC;
END-ISO-10303-21;
