ISO-10303-21;
HEADER;
FILE_DESCRIPTION (( 'STEP AP203' ),
    '1' );
FILE_NAME ('2eec.STEP',
    '2023-02-12T10:34:28',
    ( '' ),
    ( '' ),
    'SwSTEP 2.0',
    'SolidWorks 2019',
    '' );
FILE_SCHEMA (( 'CONFIG_CONTROL_DESIGN' ));
ENDSEC;

DATA;
#1 = AXIS2_PLACEMENT_3D ( 'NONE', #116, #17, #218 ) ;
#2 = EDGE_CURVE ( 'NONE', #60, #195, #137, .T. ) ;
#3 = APPROVAL_ROLE ( '' ) ;
#4 = DIRECTION ( 'NONE',  ( 1.000000000000000000, 0.000000000000000000, 0.000000000000000000 ) ) ;
#5 = EDGE_CURVE ( 'NONE', #44, #206, #27, .T. ) ;
#6 = AXIS2_PLACEMENT_3D ( 'NONE', #69, #66, #220 ) ;
#7 = FACE_OUTER_BOUND ( 'NONE', #161, .T. ) ;
#8 = DIRECTION ( 'NONE',  ( 0.000000000000000000, 0.000000000000000000, 1.000000000000000000 ) ) ;
#9 = DIRECTION ( 'NONE',  ( 1.000000000000000000, 0.000000000000000000, 0.000000000000000000 ) ) ;
#10 = CARTESIAN_POINT ( 'NONE',  ( 12.00000000000000178, 1.469576158976824144E-15, 0.000000000000000000 ) ) ;
#11 = ORIENTED_EDGE ( 'NONE', *, *, #225, .F. ) ;
#12 = CC_DESIGN_DATE_AND_TIME_ASSIGNMENT ( #16, #178, ( #254 ) ) ;
#13 = DIRECTION ( 'NONE',  ( 1.000000000000000000, 0.000000000000000000, 0.000000000000000000 ) ) ;
#14 = SECURITY_CLASSIFICATION_LEVEL ( 'unclassified' ) ;
#15 = CYLINDRICAL_SURFACE ( 'NONE', #115, 9.000000000000000000 ) ;
#16 = DATE_AND_TIME ( #193, #179 ) ;
#17 = DIRECTION ( 'NONE',  ( 0.000000000000000000, 0.000000000000000000, 1.000000000000000000 ) ) ;
#18 = DESIGN_CONTEXT ( 'detailed design', #105, 'design' ) ;
#19 = ORIENTED_EDGE ( 'NONE', *, *, #5, .F. ) ;
#20 = PERSON_AND_ORGANIZATION ( #31, #203 ) ;
#21 = CARTESIAN_POINT ( 'NONE',  ( 12.00000000000000178, 1.469576158976824144E-15, 7.000000000000000000 ) ) ;
#22 = ORIENTED_EDGE ( 'NONE', *, *, #2, .T. ) ;
#23 = CC_DESIGN_APPROVAL ( #106, ( #254 ) ) ;
#24 = APPROVAL_STATUS ( 'not_yet_approved' ) ;
#25 = PRODUCT_DEFINITION_SHAPE ( 'NONE', 'NONE',  #32 ) ;
#26 = PLANE ( 'NONE',  #212 ) ;
#27 = CIRCLE ( 'NONE', #158, 9.000000000000000000 ) ;
#28 = DATE_AND_TIME ( #219, #155 ) ;
#29 = DIRECTION ( 'NONE',  ( -0.000000000000000000, -0.000000000000000000, -1.000000000000000000 ) ) ;
#30 =( GEOMETRIC_REPRESENTATION_CONTEXT ( 3 ) GLOBAL_UNCERTAINTY_ASSIGNED_CONTEXT ( ( #63 ) ) GLOBAL_UNIT_ASSIGNED_CONTEXT ( ( #152, #111, #240 ) ) REPRESENTATION_CONTEXT ( 'NONE', 'WORKASPACE' ) );
#31 = PERSON ( 'NEURÈENÝ', 'NEURÈENÝ', 'NEURÈENÝ', ('NEURÈENÝ'), ('NEURÈENÝ'), ('NEURÈENÝ') ) ;
#32 = PRODUCT_DEFINITION ( 'NEZNÁMÝ', '', #143, #18 ) ;
#33 = CARTESIAN_POINT ( 'NONE',  ( 0.000000000000000000, 0.000000000000000000, 7.000000000000000000 ) ) ;
#34 = CARTESIAN_POINT ( 'NONE',  ( -12.00000000000000178, 0.000000000000000000, 0.000000000000000000 ) ) ;
#35 = LOCAL_TIME ( 11, 34, 28.00000000000000000, #100 ) ;
#36 = CARTESIAN_POINT ( 'NONE',  ( 0.000000000000000000, 0.000000000000000000, 500.0000000000000000 ) ) ;
#37 = APPLICATION_PROTOCOL_DEFINITION ( 'international standard', 'config_control_design', 1994, #105 ) ;
#38 = CARTESIAN_POINT ( 'NONE',  ( 0.000000000000000000, 0.000000000000000000, 7.000000000000000000 ) ) ;
#39 = APPROVAL_PERSON_ORGANIZATION ( #136, #106, #3 ) ;
#40 = DIRECTION ( 'NONE',  ( -1.000000000000000000, 0.000000000000000000, 0.000000000000000000 ) ) ;
#41 = COORDINATED_UNIVERSAL_TIME_OFFSET ( 1, 0, .AHEAD. ) ;
#42 = DIRECTION ( 'NONE',  ( -0.000000000000000000, -0.000000000000000000, -1.000000000000000000 ) ) ;
#43 = ORIENTED_EDGE ( 'NONE', *, *, #160, .T. ) ;
#44 = VERTEX_POINT ( 'NONE', #121 ) ;
#45 = CARTESIAN_POINT ( 'NONE',  ( 0.000000000000000000, 0.000000000000000000, 7.000000000000000000 ) ) ;
#46 = VECTOR ( 'NONE', #29, 1000.000000000000000 ) ;
#47 = SHAPE_DEFINITION_REPRESENTATION ( #25, #163 ) ;
#48 = CARTESIAN_POINT ( 'NONE',  ( 0.000000000000000000, 0.000000000000000000, 500.0000000000000000 ) ) ;
#49 = LINE ( 'NONE', #71, #226 ) ;
#50 = CC_DESIGN_APPROVAL ( #175, ( #32 ) ) ;
#51 = DIRECTION ( 'NONE',  ( 1.000000000000000000, 0.000000000000000000, 0.000000000000000000 ) ) ;
#52 = DIRECTION ( 'NONE',  ( -0.000000000000000000, -0.000000000000000000, -1.000000000000000000 ) ) ;
#53 = AXIS2_PLACEMENT_3D ( 'NONE', #36, #188, #72 ) ;
#54 = MECHANICAL_CONTEXT ( 'NONE', #117, 'mechanical' ) ;
#55 = EDGE_LOOP ( 'NONE', ( #19, #124 ) ) ;
#56 = LOCAL_TIME ( 11, 34, 28.00000000000000000, #123 ) ;
#57 = CALENDAR_DATE ( 2023, 12, 2 ) ;
#58 = ORIENTED_EDGE ( 'NONE', *, *, #167, .T. ) ;
#59 = AXIS2_PLACEMENT_3D ( 'NONE', #48, #126, #202 ) ;
#60 = VERTEX_POINT ( 'NONE', #21 ) ;
#61 = EDGE_CURVE ( 'NONE', #82, #211, #217, .T. ) ;
#62 = VERTEX_POINT ( 'NONE', #215 ) ;
#63 = UNCERTAINTY_MEASURE_WITH_UNIT (LENGTH_MEASURE( 1.000000000000000082E-05 ), #152, 'distance_accuracy_value', 'NONE');
#64 = APPROVAL_DATE_TIME ( #232, #175 ) ;
#65 = DIRECTION ( 'NONE',  ( 0.000000000000000000, 0.000000000000000000, 1.000000000000000000 ) ) ;
#66 = DIRECTION ( 'NONE',  ( 0.000000000000000000, 0.000000000000000000, 1.000000000000000000 ) ) ;
#67 = CC_DESIGN_PERSON_AND_ORGANIZATION_ASSIGNMENT ( #138, #154, ( #32 ) ) ;
#68 = FACE_BOUND ( 'NONE', #55, .T. ) ;
#69 = CARTESIAN_POINT ( 'NONE',  ( 0.000000000000000000, 0.000000000000000000, 7.000000000000000000 ) ) ;
#70 = CIRCLE ( 'NONE', #1, 12.00000000000000178 ) ;
#71 = CARTESIAN_POINT ( 'NONE',  ( 9.000000000000000000, 1.102182119232617714E-15, 500.0000000000000000 ) ) ;
#72 = DIRECTION ( 'NONE',  ( 1.000000000000000000, 0.000000000000000000, 0.000000000000000000 ) ) ;
#73 = ADVANCED_FACE ( 'NONE', ( #230 ), #81, .T. ) ;
#74 = DIRECTION ( 'NONE',  ( -1.000000000000000000, 0.000000000000000000, 0.000000000000000000 ) ) ;
#75 = ORIENTED_EDGE ( 'NONE', *, *, #2, .F. ) ;
#76 = ADVANCED_FACE ( 'NONE', ( #192 ), #15, .T. ) ;
#77 = COORDINATED_UNIVERSAL_TIME_OFFSET ( 1, 0, .AHEAD. ) ;
#78 = VECTOR ( 'NONE', #42, 1000.000000000000000 ) ;
#79 = APPROVAL_ROLE ( '' ) ;
#80 = PERSON_AND_ORGANIZATION_ROLE ( 'classification_officer' ) ;
#81 = CYLINDRICAL_SURFACE ( 'NONE', #224, 9.000000000000000000 ) ;
#82 = VERTEX_POINT ( 'NONE', #135 ) ;
#83 = EDGE_CURVE ( 'NONE', #211, #195, #70, .T. ) ;
#84 = ORIENTED_EDGE ( 'NONE', *, *, #83, .T. ) ;
#85 = CIRCLE ( 'NONE', #242, 12.00000000000000178 ) ;
#86 = APPROVAL_PERSON_ORGANIZATION ( #229, #114, #79 ) ;
#87 = DIRECTION ( 'NONE',  ( 1.000000000000000000, 0.000000000000000000, 0.000000000000000000 ) ) ;
#88 = CIRCLE ( 'NONE', #208, 12.00000000000000178 ) ;
#89 = FACE_OUTER_BOUND ( 'NONE', #252, .T. ) ;
#90 = CARTESIAN_POINT ( 'NONE',  ( 0.000000000000000000, 0.000000000000000000, 0.000000000000000000 ) ) ;
#91 = CLOSED_SHELL ( 'NONE', ( #76, #182, #235, #122, #94, #73, #187 ) ) ;
#92 = DIRECTION ( 'NONE',  ( 0.000000000000000000, 0.000000000000000000, 1.000000000000000000 ) ) ;
#93 = FACE_OUTER_BOUND ( 'NONE', #233, .T. ) ;
#94 = ADVANCED_FACE ( 'NONE', ( #7 ), #26, .F. ) ;
#95 = CARTESIAN_POINT ( 'NONE',  ( 0.000000000000000000, 0.000000000000000000, 0.000000000000000000 ) ) ;
#96 = PLANE ( 'NONE',  #250 ) ;
#97 = PERSON_AND_ORGANIZATION ( #31, #203 ) ;
#98 = CARTESIAN_POINT ( 'NONE',  ( 0.000000000000000000, 0.000000000000000000, 500.0000000000000000 ) ) ;
#99 = EDGE_LOOP ( 'NONE', ( #198, #194, #58, #103 ) ) ;
#100 = COORDINATED_UNIVERSAL_TIME_OFFSET ( 1, 0, .AHEAD. ) ;
#101 = ORIENTED_EDGE ( 'NONE', *, *, #61, .F. ) ;
#102 = CARTESIAN_POINT ( 'NONE',  ( -12.00000000000000178, 0.000000000000000000, 7.000000000000000000 ) ) ;
#103 = ORIENTED_EDGE ( 'NONE', *, *, #160, .F. ) ;
#104 = CC_DESIGN_APPROVAL ( #114, ( #143 ) ) ;
#105 = APPLICATION_CONTEXT ( 'configuration controlled 3d designs of mechanical parts and assemblies' ) ;
#106 = APPROVAL ( #24, 'NEURÈENÝ' ) ;
#107 = AXIS2_PLACEMENT_3D ( 'NONE', #147, #8, #169 ) ;
#108 = CIRCLE ( 'NONE', #200, 9.000000000000000000 ) ;
#109 = EDGE_CURVE ( 'NONE', #243, #206, #49, .T. ) ;
#110 = CYLINDRICAL_SURFACE ( 'NONE', #216, 12.00000000000000178 ) ;
#111 =( NAMED_UNIT ( * ) PLANE_ANGLE_UNIT ( ) SI_UNIT ( $, .RADIAN. ) );
#112 = DIRECTION ( 'NONE',  ( 0.000000000000000000, 0.000000000000000000, 1.000000000000000000 ) ) ;
#113 = DIRECTION ( 'NONE',  ( -0.000000000000000000, -0.000000000000000000, -1.000000000000000000 ) ) ;
#114 = APPROVAL ( #120, 'NEURÈENÝ' ) ;
#115 = AXIS2_PLACEMENT_3D ( 'NONE', #98, #177, #156 ) ;
#116 = CARTESIAN_POINT ( 'NONE',  ( 0.000000000000000000, 0.000000000000000000, 0.000000000000000000 ) ) ;
#117 = APPLICATION_CONTEXT ( 'configuration controlled 3d designs of mechanical parts and assemblies' ) ;
#118 = DATE_TIME_ROLE ( 'creation_date' ) ;
#119 = ORIENTED_EDGE ( 'NONE', *, *, #83, .F. ) ;
#120 = APPROVAL_STATUS ( 'not_yet_approved' ) ;
#121 = CARTESIAN_POINT ( 'NONE',  ( -9.000000000000000000, 0.000000000000000000, 7.000000000000000000 ) ) ;
#122 = ADVANCED_FACE ( 'NONE', ( #68, #89 ), #239, .T. ) ;
#123 = COORDINATED_UNIVERSAL_TIME_OFFSET ( 1, 0, .AHEAD. ) ;
#124 = ORIENTED_EDGE ( 'NONE', *, *, #167, .F. ) ;
#125 = CC_DESIGN_PERSON_AND_ORGANIZATION_ASSIGNMENT ( #247, #80, ( #254 ) ) ;
#126 = DIRECTION ( 'NONE',  ( 0.000000000000000000, 0.000000000000000000, 1.000000000000000000 ) ) ;
#127 = APPROVAL_PERSON_ORGANIZATION ( #97, #175, #245 ) ;
#128 = FACE_OUTER_BOUND ( 'NONE', #133, .T. ) ;
#129 = CALENDAR_DATE ( 2023, 12, 2 ) ;
#130 = PERSON_AND_ORGANIZATION ( #31, #203 ) ;
#131 = CC_DESIGN_PERSON_AND_ORGANIZATION_ASSIGNMENT ( #20, #227, ( #143 ) ) ;
#132 = AXIS2_PLACEMENT_3D ( 'NONE', #95, #112, #13 ) ;
#133 = EDGE_LOOP ( 'NONE', ( #11, #22, #197, #101 ) ) ;
#134 = EDGE_CURVE ( 'NONE', #62, #243, #171, .T. ) ;
#135 = CARTESIAN_POINT ( 'NONE',  ( -12.00000000000000178, 0.000000000000000000, 7.000000000000000000 ) ) ;
#136 = PERSON_AND_ORGANIZATION ( #31, #203 ) ;
#137 = LINE ( 'NONE', #253, #213 ) ;
#138 = PERSON_AND_ORGANIZATION ( #31, #203 ) ;
#139 = ORIENTED_EDGE ( 'NONE', *, *, #109, .F. ) ;
#140 = ORIENTED_EDGE ( 'NONE', *, *, #225, .T. ) ;
#141 = COORDINATED_UNIVERSAL_TIME_OFFSET ( 1, 0, .AHEAD. ) ;
#142 = AXIS2_PLACEMENT_3D ( 'NONE', #33, #185, #237 ) ;
#143 = PRODUCT_DEFINITION_FORMATION_WITH_SPECIFIED_SOURCE ( 'LIBOVOLNÝ', '', #170, .NOT_KNOWN. ) ;
#144 = APPROVAL_DATE_TIME ( #28, #106 ) ;
#145 = CARTESIAN_POINT ( 'NONE',  ( 0.000000000000000000, 0.000000000000000000, 0.000000000000000000 ) ) ;
#146 = CARTESIAN_POINT ( 'NONE',  ( 0.000000000000000000, 0.000000000000000000, 7.000000000000000000 ) ) ;
#147 = CARTESIAN_POINT ( 'NONE',  ( 0.000000000000000000, 0.000000000000000000, 7.000000000000000000 ) ) ;
#148 = CARTESIAN_POINT ( 'NONE',  ( 9.000000000000000000, 1.102182119232617714E-15, 500.0000000000000000 ) ) ;
#149 = APPLICATION_PROTOCOL_DEFINITION ( 'international standard', 'config_control_design', 1994, #117 ) ;
#150 = CC_DESIGN_PERSON_AND_ORGANIZATION_ASSIGNMENT ( #130, #207, ( #170 ) ) ;
#151 = ORIENTED_EDGE ( 'NONE', *, *, #244, .T. ) ;
#152 =( LENGTH_UNIT ( ) NAMED_UNIT ( * ) SI_UNIT ( .MILLI., .METRE. ) );
#153 = DATE_AND_TIME ( #57, #35 ) ;
#154 = PERSON_AND_ORGANIZATION_ROLE ( 'creator' ) ;
#155 = LOCAL_TIME ( 11, 34, 28.00000000000000000, #141 ) ;
#156 = DIRECTION ( 'NONE',  ( -1.000000000000000000, 0.000000000000000000, 0.000000000000000000 ) ) ;
#157 = EDGE_LOOP ( 'NONE', ( #139, #236, #43, #159 ) ) ;
#158 = AXIS2_PLACEMENT_3D ( 'NONE', #45, #65, #87 ) ;
#159 = ORIENTED_EDGE ( 'NONE', *, *, #5, .T. ) ;
#160 = EDGE_CURVE ( 'NONE', #62, #44, #201, .T. ) ;
#161 = EDGE_LOOP ( 'NONE', ( #119, #180 ) ) ;
#162 = LOCAL_TIME ( 11, 34, 28.00000000000000000, #77 ) ;
#163 = ADVANCED_BREP_SHAPE_REPRESENTATION ( '2eec', ( #191, #132 ), #30 ) ;
#164 = CIRCLE ( 'NONE', #53, 9.000000000000000000 ) ;
#165 = DIRECTION ( 'NONE',  ( 0.000000000000000000, 0.000000000000000000, 1.000000000000000000 ) ) ;
#166 = DIRECTION ( 'NONE',  ( 1.000000000000000000, 0.000000000000000000, -0.000000000000000000 ) ) ;
#167 = EDGE_CURVE ( 'NONE', #206, #44, #108, .T. ) ;
#168 = CARTESIAN_POINT ( 'NONE',  ( -9.000000000000000000, 0.000000000000000000, 500.0000000000000000 ) ) ;
#169 = DIRECTION ( 'NONE',  ( 1.000000000000000000, 0.000000000000000000, 0.000000000000000000 ) ) ;
#170 = PRODUCT ( '2eec', '2eec', '', ( #54 ) ) ;
#171 = CIRCLE ( 'NONE', #59, 9.000000000000000000 ) ;
#172 = EDGE_CURVE ( 'NONE', #195, #211, #85, .T. ) ;
#173 = CARTESIAN_POINT ( 'NONE',  ( 9.000000000000000000, 1.102182119232617714E-15, 7.000000000000000000 ) ) ;
#174 = APPROVAL_STATUS ( 'not_yet_approved' ) ;
#175 = APPROVAL ( #174, 'NEURÈENÝ' ) ;
#176 = APPROVAL_DATE_TIME ( #153, #114 ) ;
#177 = DIRECTION ( 'NONE',  ( -0.000000000000000000, -0.000000000000000000, -1.000000000000000000 ) ) ;
#178 = DATE_TIME_ROLE ( 'classification_date' ) ;
#179 = LOCAL_TIME ( 11, 34, 28.00000000000000000, #41 ) ;
#180 = ORIENTED_EDGE ( 'NONE', *, *, #172, .F. ) ;
#181 = ORIENTED_EDGE ( 'NONE', *, *, #134, .T. ) ;
#182 = ADVANCED_FACE ( 'NONE', ( #128 ), #204, .T. ) ;
#183 = ORIENTED_EDGE ( 'NONE', *, *, #61, .T. ) ;
#184 = CC_DESIGN_PERSON_AND_ORGANIZATION_ASSIGNMENT ( #196, #210, ( #143 ) ) ;
#185 = DIRECTION ( 'NONE',  ( -0.000000000000000000, -0.000000000000000000, -1.000000000000000000 ) ) ;
#186 = DIRECTION ( 'NONE',  ( 1.000000000000000000, 0.000000000000000000, -0.000000000000000000 ) ) ;
#187 = ADVANCED_FACE ( 'NONE', ( #189 ), #96, .T. ) ;
#188 = DIRECTION ( 'NONE',  ( 0.000000000000000000, 0.000000000000000000, 1.000000000000000000 ) ) ;
#189 = FACE_OUTER_BOUND ( 'NONE', #249, .T. ) ;
#190 = EDGE_CURVE ( 'NONE', #243, #62, #164, .T. ) ;
#191 = MANIFOLD_SOLID_BREP ( 'Pøidat vysunutím3', #91 ) ;
#192 = FACE_OUTER_BOUND ( 'NONE', #99, .T. ) ;
#193 = CALENDAR_DATE ( 2023, 12, 2 ) ;
#194 = ORIENTED_EDGE ( 'NONE', *, *, #109, .T. ) ;
#195 = VERTEX_POINT ( 'NONE', #10 ) ;
#196 = PERSON_AND_ORGANIZATION ( #31, #203 ) ;
#197 = ORIENTED_EDGE ( 'NONE', *, *, #172, .T. ) ;
#198 = ORIENTED_EDGE ( 'NONE', *, *, #190, .F. ) ;
#199 = CC_DESIGN_SECURITY_CLASSIFICATION ( #254, ( #143 ) ) ;
#200 = AXIS2_PLACEMENT_3D ( 'NONE', #146, #222, #4 ) ;
#201 = LINE ( 'NONE', #168, #46 ) ;
#202 = DIRECTION ( 'NONE',  ( 1.000000000000000000, 0.000000000000000000, 0.000000000000000000 ) ) ;
#203 = ORGANIZATION ( 'NEURÈENÝ', 'NEURÈENÝ', '' ) ;
#204 = CYLINDRICAL_SURFACE ( 'NONE', #142, 12.00000000000000178 ) ;
#205 = DIRECTION ( 'NONE',  ( 0.000000000000000000, 0.000000000000000000, 1.000000000000000000 ) ) ;
#206 = VERTEX_POINT ( 'NONE', #173 ) ;
#207 = PERSON_AND_ORGANIZATION_ROLE ( 'design_owner' ) ;
#208 = AXIS2_PLACEMENT_3D ( 'NONE', #223, #92, #9 ) ;
#209 = DIRECTION ( 'NONE',  ( -0.000000000000000000, -0.000000000000000000, -1.000000000000000000 ) ) ;
#210 = PERSON_AND_ORGANIZATION_ROLE ( 'creator' ) ;
#211 = VERTEX_POINT ( 'NONE', #34 ) ;
#212 = AXIS2_PLACEMENT_3D ( 'NONE', #90, #165, #166 ) ;
#213 = VECTOR ( 'NONE', #113, 1000.000000000000000 ) ;
#214 = CC_DESIGN_DATE_AND_TIME_ASSIGNMENT ( #246, #118, ( #32 ) ) ;
#215 = CARTESIAN_POINT ( 'NONE',  ( -9.000000000000000000, 0.000000000000000000, 500.0000000000000000 ) ) ;
#216 = AXIS2_PLACEMENT_3D ( 'NONE', #38, #52, #74 ) ;
#217 = LINE ( 'NONE', #102, #78 ) ;
#218 = DIRECTION ( 'NONE',  ( 1.000000000000000000, 0.000000000000000000, 0.000000000000000000 ) ) ;
#219 = CALENDAR_DATE ( 2023, 12, 2 ) ;
#220 = DIRECTION ( 'NONE',  ( 1.000000000000000000, 0.000000000000000000, -0.000000000000000000 ) ) ;
#221 = DIRECTION ( 'NONE',  ( 0.000000000000000000, 0.000000000000000000, 1.000000000000000000 ) ) ;
#222 = DIRECTION ( 'NONE',  ( 0.000000000000000000, 0.000000000000000000, 1.000000000000000000 ) ) ;
#223 = CARTESIAN_POINT ( 'NONE',  ( 0.000000000000000000, 0.000000000000000000, 7.000000000000000000 ) ) ;
#224 = AXIS2_PLACEMENT_3D ( 'NONE', #228, #209, #40 ) ;
#225 = EDGE_CURVE ( 'NONE', #60, #82, #88, .T. ) ;
#226 = VECTOR ( 'NONE', #238, 1000.000000000000000 ) ;
#227 = PERSON_AND_ORGANIZATION_ROLE ( 'design_supplier' ) ;
#228 = CARTESIAN_POINT ( 'NONE',  ( 0.000000000000000000, 0.000000000000000000, 500.0000000000000000 ) ) ;
#229 = PERSON_AND_ORGANIZATION ( #31, #203 ) ;
#230 = FACE_OUTER_BOUND ( 'NONE', #157, .T. ) ;
#231 = ORIENTED_EDGE ( 'NONE', *, *, #244, .F. ) ;
#232 = DATE_AND_TIME ( #129, #162 ) ;
#233 = EDGE_LOOP ( 'NONE', ( #75, #231, #183, #84 ) ) ;
#234 = CIRCLE ( 'NONE', #107, 12.00000000000000178 ) ;
#235 = ADVANCED_FACE ( 'NONE', ( #93 ), #110, .T. ) ;
#236 = ORIENTED_EDGE ( 'NONE', *, *, #134, .F. ) ;
#237 = DIRECTION ( 'NONE',  ( -1.000000000000000000, 0.000000000000000000, 0.000000000000000000 ) ) ;
#238 = DIRECTION ( 'NONE',  ( -0.000000000000000000, -0.000000000000000000, -1.000000000000000000 ) ) ;
#239 = PLANE ( 'NONE',  #6 ) ;
#240 =( NAMED_UNIT ( * ) SI_UNIT ( $, .STERADIAN. ) SOLID_ANGLE_UNIT ( ) );
#241 = CARTESIAN_POINT ( 'NONE',  ( 0.000000000000000000, 0.000000000000000000, 500.0000000000000000 ) ) ;
#242 = AXIS2_PLACEMENT_3D ( 'NONE', #145, #221, #51 ) ;
#243 = VERTEX_POINT ( 'NONE', #148 ) ;
#244 = EDGE_CURVE ( 'NONE', #82, #60, #234, .T. ) ;
#245 = APPROVAL_ROLE ( '' ) ;
#246 = DATE_AND_TIME ( #251, #56 ) ;
#247 = PERSON_AND_ORGANIZATION ( #31, #203 ) ;
#248 = PRODUCT_RELATED_PRODUCT_CATEGORY ( 'detail', '', ( #170 ) ) ;
#249 = EDGE_LOOP ( 'NONE', ( #181, #255 ) ) ;
#250 = AXIS2_PLACEMENT_3D ( 'NONE', #241, #205, #186 ) ;
#251 = CALENDAR_DATE ( 2023, 12, 2 ) ;
#252 = EDGE_LOOP ( 'NONE', ( #151, #140 ) ) ;
#253 = CARTESIAN_POINT ( 'NONE',  ( 12.00000000000000178, 1.469576158976824144E-15, 7.000000000000000000 ) ) ;
#254 = SECURITY_CLASSIFICATION ( '', '', #14 ) ;
#255 = ORIENTED_EDGE ( 'NONE', *, *, #190, .T. ) ;
ENDSEC;
END-ISO-10303-21;
