ISO-10303-21;
HEADER;
FILE_DESCRIPTION (( 'STEP AP203' ),
    '1' );
FILE_NAME ('a33a.STEP',
    '2022-07-07T10:19:01',
    ( '' ),
    ( '' ),
    'SwSTEP 2.0',
    'SolidWorks 2019',
    '' );
FILE_SCHEMA (( 'CONFIG_CONTROL_DESIGN' ));
ENDSEC;

DATA;
#1 = CARTESIAN_POINT ( 'NONE',  ( 0.000000000000000000, 0.000000000000000000, 0.000000000000000000 ) ) ;
#2 = LINE ( 'NONE', #205, #156 ) ;
#3 = PLANE ( 'NONE',  #264 ) ;
#4 = COORDINATED_UNIVERSAL_TIME_OFFSET ( 1, 0, .AHEAD. ) ;
#5 = AXIS2_PLACEMENT_3D ( 'NONE', #146, #94, #69 ) ;
#6 = ADVANCED_FACE ( 'NONE', ( #124 ), #153, .T. ) ;
#7 = CIRCLE ( 'NONE', #234, 2.500000000000000000 ) ;
#8 = CIRCLE ( 'NONE', #152, 0.2000000000000000944 ) ;
#9 = CC_DESIGN_PERSON_AND_ORGANIZATION_ASSIGNMENT ( #28, #23, ( #92 ) ) ;
#10 = ORIENTED_EDGE ( 'NONE', *, *, #165, .T. ) ;
#11 = ORIENTED_EDGE ( 'NONE', *, *, #167, .F. ) ;
#12 = CARTESIAN_POINT ( 'NONE',  ( 5.000000000000000000, 6.123233995736766282E-16, 0.000000000000000000 ) ) ;
#13 = EDGE_LOOP ( 'NONE', ( #241, #52, #10, #245 ) ) ;
#14 = DIRECTION ( 'NONE',  ( 1.000000000000000000, 0.000000000000000000, 0.000000000000000000 ) ) ;
#15 = FACE_OUTER_BOUND ( 'NONE', #75, .T. ) ;
#16 = CARTESIAN_POINT ( 'NONE',  ( 0.000000000000000000, 0.000000000000000000, 3.000000000000000000 ) ) ;
#17 = CARTESIAN_POINT ( 'NONE',  ( 0.000000000000000000, 0.000000000000000000, 3.000000000000000000 ) ) ;
#18 = DIRECTION ( 'NONE',  ( 1.000000000000000000, 0.000000000000000000, -0.000000000000000000 ) ) ;
#19 = ORGANIZATION ( 'NEURÈENÝ', 'NEURÈENÝ', '' ) ;
#20 = DIRECTION ( 'NONE',  ( 0.000000000000000000, 0.000000000000000000, 1.000000000000000000 ) ) ;
#21 = DIRECTION ( 'NONE',  ( -1.000000000000000000, 0.000000000000000000, 0.000000000000000000 ) ) ;
#22 = VECTOR ( 'NONE', #258, 1000.000000000000000 ) ;
#23 = PERSON_AND_ORGANIZATION_ROLE ( 'design_supplier' ) ;
#24 = MANIFOLD_SOLID_BREP ( 'Zaoblit1', #161 ) ;
#25 = CALENDAR_DATE ( 2022, 7, 7 ) ;
#26 = VERTEX_POINT ( 'NONE', #129 ) ;
#27 = AXIS2_PLACEMENT_3D ( 'NONE', #200, #250, #125 ) ;
#28 = PERSON_AND_ORGANIZATION ( #237, #19 ) ;
#29 = CIRCLE ( 'NONE', #35, 5.000000000000000000 ) ;
#30 = VERTEX_POINT ( 'NONE', #148 ) ;
#31 = FACE_OUTER_BOUND ( 'NONE', #194, .T. ) ;
#32 = DIRECTION ( 'NONE',  ( 0.000000000000000000, 0.000000000000000000, 1.000000000000000000 ) ) ;
#33 = ORIENTED_EDGE ( 'NONE', *, *, #269, .T. ) ;
#34 = DIRECTION ( 'NONE',  ( 0.000000000000000000, 0.000000000000000000, 1.000000000000000000 ) ) ;
#35 = AXIS2_PLACEMENT_3D ( 'NONE', #238, #20, #112 ) ;
#36 = PLANE ( 'NONE',  #70 ) ;
#37 = CARTESIAN_POINT ( 'NONE',  ( 5.000000000000000000, 6.123233995736766282E-16, 3.000000000000000000 ) ) ;
#38 = APPROVAL ( #170, 'NEURÈENÝ' ) ;
#39 = CIRCLE ( 'NONE', #27, 2.500000000000000000 ) ;
#40 = CARTESIAN_POINT ( 'NONE',  ( 0.000000000000000000, 0.000000000000000000, 0.000000000000000000 ) ) ;
#41 = DIRECTION ( 'NONE',  ( -0.000000000000000000, -0.000000000000000000, -1.000000000000000000 ) ) ;
#42 = PERSON_AND_ORGANIZATION ( #237, #19 ) ;
#43 = VERTEX_POINT ( 'NONE', #300 ) ;
#44 = TOROIDAL_SURFACE ( 'NONE', #106, 2.700000000000000178, 0.2000000000000000111 ) ;
#45 = APPROVAL_ROLE ( '' ) ;
#46 = ORIENTED_EDGE ( 'NONE', *, *, #227, .F. ) ;
#47 = APPROVAL_ROLE ( '' ) ;
#48 = ORIENTED_EDGE ( 'NONE', *, *, #154, .T. ) ;
#49 = AXIS2_PLACEMENT_3D ( 'NONE', #16, #208, #133 ) ;
#50 = COORDINATED_UNIVERSAL_TIME_OFFSET ( 1, 0, .AHEAD. ) ;
#51 = VERTEX_POINT ( 'NONE', #80 ) ;
#52 = ORIENTED_EDGE ( 'NONE', *, *, #136, .F. ) ;
#53 = APPROVAL ( #143, 'NEURÈENÝ' ) ;
#54 = DIRECTION ( 'NONE',  ( 1.000000000000000000, 0.000000000000000000, -0.000000000000000000 ) ) ;
#55 = EDGE_CURVE ( 'NONE', #43, #30, #207, .T. ) ;
#56 = DIRECTION ( 'NONE',  ( -1.000000000000000000, 0.000000000000000000, 0.000000000000000000 ) ) ;
#57 = PRODUCT_DEFINITION ( 'NEZNÁMÝ', '', #92, #242 ) ;
#58 = ORIENTED_EDGE ( 'NONE', *, *, #55, .F. ) ;
#59 = ORIENTED_EDGE ( 'NONE', *, *, #289, .F. ) ;
#60 = CIRCLE ( 'NONE', #292, 0.2000000000000000944 ) ;
#61 = DIRECTION ( 'NONE',  ( 0.000000000000000000, 0.000000000000000000, 1.000000000000000000 ) ) ;
#62 = CARTESIAN_POINT ( 'NONE',  ( 0.000000000000000000, 0.000000000000000000, 3.000000000000000000 ) ) ;
#63 = CARTESIAN_POINT ( 'NONE',  ( 0.000000000000000000, 0.000000000000000000, 3.000000000000000000 ) ) ;
#64 = SECURITY_CLASSIFICATION ( '', '', #217 ) ;
#65 = DIRECTION ( 'NONE',  ( 0.000000000000000000, 0.000000000000000000, 1.000000000000000000 ) ) ;
#66 = VERTEX_POINT ( 'NONE', #131 ) ;
#67 = PERSON_AND_ORGANIZATION_ROLE ( 'design_owner' ) ;
#68 = ORIENTED_EDGE ( 'NONE', *, *, #190, .T. ) ;
#69 = DIRECTION ( 'NONE',  ( 1.000000000000000000, 0.000000000000000000, 0.000000000000000000 ) ) ;
#70 = AXIS2_PLACEMENT_3D ( 'NONE', #17, #206, #284 ) ;
#71 = DATE_AND_TIME ( #243, #195 ) ;
#72 = ORIENTED_EDGE ( 'NONE', *, *, #167, .T. ) ;
#73 = APPLICATION_CONTEXT ( 'configuration controlled 3d designs of mechanical parts and assemblies' ) ;
#74 = PERSON_AND_ORGANIZATION ( #237, #19 ) ;
#75 = EDGE_LOOP ( 'NONE', ( #11, #298 ) ) ;
#76 = CC_DESIGN_APPROVAL ( #265, ( #57 ) ) ;
#77 = ORIENTED_EDGE ( 'NONE', *, *, #86, .T. ) ;
#78 = ADVANCED_FACE ( 'NONE', ( #31 ), #228, .T. ) ;
#79 = ADVANCED_BREP_SHAPE_REPRESENTATION ( 'a33a', ( #24, #5 ), #126 ) ;
#80 = CARTESIAN_POINT ( 'NONE',  ( -5.000000000000000000, 0.000000000000000000, 3.000000000000000000 ) ) ;
#81 = ADVANCED_FACE ( 'NONE', ( #15 ), #253, .F. ) ;
#82 = FACE_OUTER_BOUND ( 'NONE', #201, .T. ) ;
#83 = APPROVAL_PERSON_ORGANIZATION ( #189, #53, #47 ) ;
#84 = ORIENTED_EDGE ( 'NONE', *, *, #209, .T. ) ;
#85 = DIRECTION ( 'NONE',  ( 0.000000000000000000, 0.000000000000000000, 1.000000000000000000 ) ) ;
#86 = EDGE_CURVE ( 'NONE', #66, #202, #7, .T. ) ;
#87 = DIRECTION ( 'NONE',  ( 1.000000000000000000, 0.000000000000000000, 0.000000000000000000 ) ) ;
#88 = LOCAL_TIME ( 12, 19, 1.000000000000000000, #168 ) ;
#89 = FACE_OUTER_BOUND ( 'NONE', #119, .T. ) ;
#90 = DIRECTION ( 'NONE',  ( 1.000000000000000000, 0.000000000000000000, 0.000000000000000000 ) ) ;
#91 = CARTESIAN_POINT ( 'NONE',  ( 2.700000000000000178, 0.000000000000000000, 3.199999999999980638 ) ) ;
#92 = PRODUCT_DEFINITION_FORMATION_WITH_SPECIFIED_SOURCE ( 'LIBOVOLNÝ', '', #114, .NOT_KNOWN. ) ;
#93 = DATE_TIME_ROLE ( 'creation_date' ) ;
#94 = DIRECTION ( 'NONE',  ( 0.000000000000000000, 0.000000000000000000, 1.000000000000000000 ) ) ;
#95 = DATE_AND_TIME ( #240, #121 ) ;
#96 = AXIS2_PLACEMENT_3D ( 'NONE', #176, #177, #230 ) ;
#97 = CC_DESIGN_PERSON_AND_ORGANIZATION_ASSIGNMENT ( #215, #140, ( #64 ) ) ;
#98 = AXIS2_PLACEMENT_3D ( 'NONE', #157, #158, #87 ) ;
#99 = VERTEX_POINT ( 'NONE', #224 ) ;
#100 = DIRECTION ( 'NONE',  ( -0.000000000000000000, -0.000000000000000000, -1.000000000000000000 ) ) ;
#101 = CARTESIAN_POINT ( 'NONE',  ( 0.000000000000000000, 0.000000000000000000, 0.000000000000000000 ) ) ;
#102 = AXIS2_PLACEMENT_3D ( 'NONE', #62, #61, #139 ) ;
#103 = ORIENTED_EDGE ( 'NONE', *, *, #150, .T. ) ;
#104 = VERTEX_POINT ( 'NONE', #12 ) ;
#105 = DIRECTION ( 'NONE',  ( 1.000000000000000000, 0.000000000000000000, 0.000000000000000000 ) ) ;
#106 = AXIS2_PLACEMENT_3D ( 'NONE', #183, #135, #111 ) ;
#107 = ADVANCED_FACE ( 'NONE', ( #82 ), #198, .T. ) ;
#108 = CARTESIAN_POINT ( 'NONE',  ( -2.700000000000000178, 3.306546357697853733E-16, 3.199999999999980638 ) ) ;
#109 = CC_DESIGN_PERSON_AND_ORGANIZATION_ASSIGNMENT ( #115, #213, ( #57 ) ) ;
#110 = DIRECTION ( 'NONE',  ( 1.000000000000000000, 0.000000000000000000, 0.000000000000000000 ) ) ;
#111 = DIRECTION ( 'NONE',  ( 1.000000000000000000, 0.000000000000000000, 0.000000000000000000 ) ) ;
#112 = DIRECTION ( 'NONE',  ( 1.000000000000000000, 0.000000000000000000, 0.000000000000000000 ) ) ;
#113 = DIRECTION ( 'NONE',  ( 0.000000000000000000, 0.000000000000000000, 1.000000000000000000 ) ) ;
#114 = PRODUCT ( 'a33a', 'a33a', '', ( #144 ) ) ;
#115 = PERSON_AND_ORGANIZATION ( #237, #19 ) ;
#116 = APPROVAL_DATE_TIME ( #71, #265 ) ;
#117 = ORIENTED_EDGE ( 'NONE', *, *, #55, .T. ) ;
#118 = DATE_AND_TIME ( #25, #199 ) ;
#119 = EDGE_LOOP ( 'NONE', ( #204, #197 ) ) ;
#120 = COORDINATED_UNIVERSAL_TIME_OFFSET ( 1, 0, .AHEAD. ) ;
#121 = LOCAL_TIME ( 12, 19, 1.000000000000000000, #120 ) ;
#122 = APPROVAL_DATE_TIME ( #118, #38 ) ;
#123 = VERTEX_POINT ( 'NONE', #296 ) ;
#124 = FACE_OUTER_BOUND ( 'NONE', #278, .T. ) ;
#125 = DIRECTION ( 'NONE',  ( 1.000000000000000000, 0.000000000000000000, 0.000000000000000000 ) ) ;
#126 =( GEOMETRIC_REPRESENTATION_CONTEXT ( 3 ) GLOBAL_UNCERTAINTY_ASSIGNED_CONTEXT ( ( #239 ) ) GLOBAL_UNIT_ASSIGNED_CONTEXT ( ( #266, #294, #196 ) ) REPRESENTATION_CONTEXT ( 'NONE', 'WORKASPACE' ) );
#127 = EDGE_LOOP ( 'NONE', ( #59, #68, #303, #145 ) ) ;
#128 = CC_DESIGN_DATE_AND_TIME_ASSIGNMENT ( #268, #93, ( #57 ) ) ;
#129 = CARTESIAN_POINT ( 'NONE',  ( 5.000000000000000000, 6.123233995736766282E-16, 3.000000000000000000 ) ) ;
#130 = CIRCLE ( 'NONE', #203, 2.500000000000000000 ) ;
#131 = CARTESIAN_POINT ( 'NONE',  ( -2.500000000000000000, 0.000000000000000000, 503.0000000000000000 ) ) ;
#132 = CC_DESIGN_DATE_AND_TIME_ASSIGNMENT ( #95, #193, ( #64 ) ) ;
#133 = DIRECTION ( 'NONE',  ( 1.000000000000000000, 0.000000000000000000, 0.000000000000000000 ) ) ;
#134 = LINE ( 'NONE', #37, #236 ) ;
#135 = DIRECTION ( 'NONE',  ( 0.000000000000000000, 0.000000000000000000, 1.000000000000000000 ) ) ;
#136 = EDGE_CURVE ( 'NONE', #30, #43, #39, .T. ) ;
#137 = CC_DESIGN_APPROVAL ( #53, ( #92 ) ) ;
#138 = DIRECTION ( 'NONE',  ( -0.000000000000000000, -0.000000000000000000, -1.000000000000000000 ) ) ;
#139 = DIRECTION ( 'NONE',  ( 1.000000000000000000, 0.000000000000000000, 0.000000000000000000 ) ) ;
#140 = PERSON_AND_ORGANIZATION_ROLE ( 'classification_officer' ) ;
#141 = ORIENTED_EDGE ( 'NONE', *, *, #231, .T. ) ;
#142 = APPLICATION_CONTEXT ( 'configuration controlled 3d designs of mechanical parts and assemblies' ) ;
#143 = APPROVAL_STATUS ( 'not_yet_approved' ) ;
#144 = MECHANICAL_CONTEXT ( 'NONE', #142, 'mechanical' ) ;
#145 = ORIENTED_EDGE ( 'NONE', *, *, #282, .F. ) ;
#146 = CARTESIAN_POINT ( 'NONE',  ( 0.000000000000000000, 0.000000000000000000, 0.000000000000000000 ) ) ;
#147 = ORIENTED_EDGE ( 'NONE', *, *, #154, .F. ) ;
#148 = CARTESIAN_POINT ( 'NONE',  ( 2.500000000000000000, 3.061616997868383141E-16, 3.199999999999980638 ) ) ;
#149 = ORIENTED_EDGE ( 'NONE', *, *, #165, .F. ) ;
#150 = EDGE_CURVE ( 'NONE', #202, #66, #130, .T. ) ;
#151 = ORIENTED_EDGE ( 'NONE', *, *, #209, .F. ) ;
#152 = AXIS2_PLACEMENT_3D ( 'NONE', #108, #306, #279 ) ;
#153 = CYLINDRICAL_SURFACE ( 'NONE', #290, 5.000000000000000000 ) ;
#154 = EDGE_CURVE ( 'NONE', #123, #99, #186, .T. ) ;
#155 = DIRECTION ( 'NONE',  ( -1.000000000000000000, 0.000000000000000000, 0.000000000000000000 ) ) ;
#156 = VECTOR ( 'NONE', #181, 1000.000000000000000 ) ;
#157 = CARTESIAN_POINT ( 'NONE',  ( 0.000000000000000000, 0.000000000000000000, 3.000000000000000000 ) ) ;
#158 = DIRECTION ( 'NONE',  ( -0.000000000000000000, -0.000000000000000000, -1.000000000000000000 ) ) ;
#159 = EDGE_CURVE ( 'NONE', #202, #30, #2, .T. ) ;
#160 = CARTESIAN_POINT ( 'NONE',  ( -5.000000000000000000, 0.000000000000000000, 0.000000000000000000 ) ) ;
#161 = CLOSED_SHELL ( 'NONE', ( #247, #107, #299, #6, #188, #81, #78, #172, #169 ) ) ;
#162 = FACE_OUTER_BOUND ( 'NONE', #127, .T. ) ;
#163 = CIRCLE ( 'NONE', #98, 2.700000000000000178 ) ;
#164 = DIRECTION ( 'NONE',  ( 0.000000000000000000, -1.000000000000000000, 0.000000000000000000 ) ) ;
#165 = EDGE_CURVE ( 'NONE', #30, #123, #60, .T. ) ;
#166 = EDGE_LOOP ( 'NONE', ( #77, #103 ) ) ;
#167 = EDGE_CURVE ( 'NONE', #267, #104, #276, .T. ) ;
#168 = COORDINATED_UNIVERSAL_TIME_OFFSET ( 1, 0, .AHEAD. ) ;
#169 = ADVANCED_FACE ( 'NONE', ( #281 ), #44, .F. ) ;
#170 = APPROVAL_STATUS ( 'not_yet_approved' ) ;
#171 = CALENDAR_DATE ( 2022, 7, 7 ) ;
#172 = ADVANCED_FACE ( 'NONE', ( #259 ), #3, .T. ) ;
#173 = PERSON_AND_ORGANIZATION ( #237, #19 ) ;
#174 = AXIS2_PLACEMENT_3D ( 'NONE', #1, #232, #90 ) ;
#175 = ORIENTED_EDGE ( 'NONE', *, *, #86, .F. ) ;
#176 = CARTESIAN_POINT ( 'NONE',  ( 0.000000000000000000, 0.000000000000000000, 503.0000000000000000 ) ) ;
#177 = DIRECTION ( 'NONE',  ( -0.000000000000000000, -0.000000000000000000, -1.000000000000000000 ) ) ;
#178 = AXIS2_PLACEMENT_3D ( 'NONE', #307, #113, #110 ) ;
#179 = DIRECTION ( 'NONE',  ( -0.000000000000000000, -0.000000000000000000, -1.000000000000000000 ) ) ;
#180 = ORIENTED_EDGE ( 'NONE', *, *, #159, .T. ) ;
#181 = DIRECTION ( 'NONE',  ( -0.000000000000000000, -0.000000000000000000, -1.000000000000000000 ) ) ;
#182 = LINE ( 'NONE', #257, #22 ) ;
#183 = CARTESIAN_POINT ( 'NONE',  ( 0.000000000000000000, 0.000000000000000000, 3.199999999999980638 ) ) ;
#184 = CC_DESIGN_PERSON_AND_ORGANIZATION_ASSIGNMENT ( #74, #67, ( #114 ) ) ;
#185 = FACE_BOUND ( 'NONE', #248, .T. ) ;
#186 = CIRCLE ( 'NONE', #49, 2.700000000000000178 ) ;
#187 = DIRECTION ( 'NONE',  ( 0.000000000000000000, 0.000000000000000000, -1.000000000000000000 ) ) ;
#188 = ADVANCED_FACE ( 'NONE', ( #185, #89 ), #36, .T. ) ;
#189 = PERSON_AND_ORGANIZATION ( #237, #19 ) ;
#190 = EDGE_CURVE ( 'NONE', #26, #104, #134, .T. ) ;
#191 = APPLICATION_PROTOCOL_DEFINITION ( 'international standard', 'config_control_design', 1994, #142 ) ;
#192 = EDGE_LOOP ( 'NONE', ( #58, #141, #147, #149 ) ) ;
#193 = DATE_TIME_ROLE ( 'classification_date' ) ;
#194 = EDGE_LOOP ( 'NONE', ( #277, #175, #84, #117 ) ) ;
#195 = LOCAL_TIME ( 12, 19, 1.000000000000000000, #50 ) ;
#196 =( NAMED_UNIT ( * ) SI_UNIT ( $, .STERADIAN. ) SOLID_ANGLE_UNIT ( ) );
#197 = ORIENTED_EDGE ( 'NONE', *, *, #289, .T. ) ;
#198 = CYLINDRICAL_SURFACE ( 'NONE', #218, 2.500000000000000000 ) ;
#199 = LOCAL_TIME ( 12, 19, 1.000000000000000000, #244 ) ;
#200 = CARTESIAN_POINT ( 'NONE',  ( 0.000000000000000000, 0.000000000000000000, 3.199999999999980638 ) ) ;
#201 = EDGE_LOOP ( 'NONE', ( #216, #180, #288, #151 ) ) ;
#202 = VERTEX_POINT ( 'NONE', #256 ) ;
#203 = AXIS2_PLACEMENT_3D ( 'NONE', #252, #32, #14 ) ;
#204 = ORIENTED_EDGE ( 'NONE', *, *, #227, .T. ) ;
#205 = CARTESIAN_POINT ( 'NONE',  ( 2.500000000000000000, 3.061616997868383141E-16, 503.0000000000000000 ) ) ;
#206 = DIRECTION ( 'NONE',  ( 0.000000000000000000, 0.000000000000000000, 1.000000000000000000 ) ) ;
#207 = CIRCLE ( 'NONE', #271, 2.500000000000000000 ) ;
#208 = DIRECTION ( 'NONE',  ( -0.000000000000000000, -0.000000000000000000, -1.000000000000000000 ) ) ;
#209 = EDGE_CURVE ( 'NONE', #66, #43, #233, .T. ) ;
#210 = AXIS2_PLACEMENT_3D ( 'NONE', #63, #138, #21 ) ;
#211 = CYLINDRICAL_SURFACE ( 'NONE', #210, 5.000000000000000000 ) ;
#212 = FACE_OUTER_BOUND ( 'NONE', #192, .T. ) ;
#213 = PERSON_AND_ORGANIZATION_ROLE ( 'creator' ) ;
#214 = CIRCLE ( 'NONE', #102, 5.000000000000000000 ) ;
#215 = PERSON_AND_ORGANIZATION ( #237, #19 ) ;
#216 = ORIENTED_EDGE ( 'NONE', *, *, #150, .F. ) ;
#217 = SECURITY_CLASSIFICATION_LEVEL ( 'unclassified' ) ;
#218 = AXIS2_PLACEMENT_3D ( 'NONE', #305, #100, #56 ) ;
#219 = LOCAL_TIME ( 12, 19, 1.000000000000000000, #4 ) ;
#220 = APPROVAL_STATUS ( 'not_yet_approved' ) ;
#221 = ORIENTED_EDGE ( 'NONE', *, *, #282, .T. ) ;
#222 = EDGE_CURVE ( 'NONE', #104, #267, #280, .T. ) ;
#223 = SHAPE_DEFINITION_REPRESENTATION ( #301, #79 ) ;
#224 = CARTESIAN_POINT ( 'NONE',  ( -2.700000000000000178, 3.306546357697853733E-16, 2.999999999999990674 ) ) ;
#225 = TOROIDAL_SURFACE ( 'NONE', #178, 2.700000000000000178, 0.2000000000000000111 ) ;
#226 = ORIENTED_EDGE ( 'NONE', *, *, #190, .F. ) ;
#227 = EDGE_CURVE ( 'NONE', #51, #26, #214, .T. ) ;
#228 = CYLINDRICAL_SURFACE ( 'NONE', #96, 2.500000000000000000 ) ;
#229 = DIRECTION ( 'NONE',  ( 0.000000000000000000, 0.000000000000000000, 1.000000000000000000 ) ) ;
#230 = DIRECTION ( 'NONE',  ( -1.000000000000000000, 0.000000000000000000, 0.000000000000000000 ) ) ;
#231 = EDGE_CURVE ( 'NONE', #43, #99, #8, .T. ) ;
#232 = DIRECTION ( 'NONE',  ( 0.000000000000000000, 0.000000000000000000, 1.000000000000000000 ) ) ;
#233 = LINE ( 'NONE', #235, #297 ) ;
#234 = AXIS2_PLACEMENT_3D ( 'NONE', #275, #229, #105 ) ;
#235 = CARTESIAN_POINT ( 'NONE',  ( -2.500000000000000000, 0.000000000000000000, 503.0000000000000000 ) ) ;
#236 = VECTOR ( 'NONE', #41, 1000.000000000000000 ) ;
#237 = PERSON ( 'NEURÈENÝ', 'NEURÈENÝ', 'NEURÈENÝ', ('NEURÈENÝ'), ('NEURÈENÝ'), ('NEURÈENÝ') ) ;
#238 = CARTESIAN_POINT ( 'NONE',  ( 0.000000000000000000, 0.000000000000000000, 3.000000000000000000 ) ) ;
#239 = UNCERTAINTY_MEASURE_WITH_UNIT (LENGTH_MEASURE( 1.000000000000000082E-05 ), #266, 'distance_accuracy_value', 'NONE');
#240 = CALENDAR_DATE ( 2022, 7, 7 ) ;
#241 = ORIENTED_EDGE ( 'NONE', *, *, #231, .F. ) ;
#242 = DESIGN_CONTEXT ( 'detailed design', #73, 'design' ) ;
#243 = CALENDAR_DATE ( 2022, 7, 7 ) ;
#244 = COORDINATED_UNIVERSAL_TIME_OFFSET ( 1, 0, .AHEAD. ) ;
#245 = ORIENTED_EDGE ( 'NONE', *, *, #269, .F. ) ;
#246 = PERSON_AND_ORGANIZATION_ROLE ( 'creator' ) ;
#247 = ADVANCED_FACE ( 'NONE', ( #212 ), #225, .F. ) ;
#248 = EDGE_LOOP ( 'NONE', ( #48, #33 ) ) ;
#249 = DIRECTION ( 'NONE',  ( 0.000000000000000000, 0.000000000000000000, 1.000000000000000000 ) ) ;
#250 = DIRECTION ( 'NONE',  ( 0.000000000000000000, 0.000000000000000000, 1.000000000000000000 ) ) ;
#251 = APPROVAL_PERSON_ORGANIZATION ( #173, #265, #270 ) ;
#252 = CARTESIAN_POINT ( 'NONE',  ( 0.000000000000000000, 0.000000000000000000, 503.0000000000000000 ) ) ;
#253 = PLANE ( 'NONE',  #295 ) ;
#254 = CARTESIAN_POINT ( 'NONE',  ( 0.000000000000000000, 0.000000000000000000, 3.199999999999980638 ) ) ;
#255 = AXIS2_PLACEMENT_3D ( 'NONE', #40, #85, #285 ) ;
#256 = CARTESIAN_POINT ( 'NONE',  ( 2.500000000000000000, 3.061616997868383141E-16, 503.0000000000000000 ) ) ;
#257 = CARTESIAN_POINT ( 'NONE',  ( -5.000000000000000000, 0.000000000000000000, 3.000000000000000000 ) ) ;
#258 = DIRECTION ( 'NONE',  ( -0.000000000000000000, -0.000000000000000000, -1.000000000000000000 ) ) ;
#259 = FACE_OUTER_BOUND ( 'NONE', #166, .T. ) ;
#260 = CC_DESIGN_APPROVAL ( #38, ( #64 ) ) ;
#261 = CARTESIAN_POINT ( 'NONE',  ( 0.000000000000000000, 0.000000000000000000, 503.0000000000000000 ) ) ;
#262 = APPROVAL_DATE_TIME ( #263, #53 ) ;
#263 = DATE_AND_TIME ( #287, #88 ) ;
#264 = AXIS2_PLACEMENT_3D ( 'NONE', #261, #65, #18 ) ;
#265 = APPROVAL ( #220, 'NEURÈENÝ' ) ;
#266 =( LENGTH_UNIT ( ) NAMED_UNIT ( * ) SI_UNIT ( .MILLI., .METRE. ) );
#267 = VERTEX_POINT ( 'NONE', #160 ) ;
#268 = DATE_AND_TIME ( #171, #219 ) ;
#269 = EDGE_CURVE ( 'NONE', #99, #123, #163, .T. ) ;
#270 = APPROVAL_ROLE ( '' ) ;
#271 = AXIS2_PLACEMENT_3D ( 'NONE', #254, #34, #274 ) ;
#272 = CC_DESIGN_PERSON_AND_ORGANIZATION_ASSIGNMENT ( #42, #246, ( #92 ) ) ;
#273 = CARTESIAN_POINT ( 'NONE',  ( 0.000000000000000000, 0.000000000000000000, 3.000000000000000000 ) ) ;
#274 = DIRECTION ( 'NONE',  ( 1.000000000000000000, 0.000000000000000000, 0.000000000000000000 ) ) ;
#275 = CARTESIAN_POINT ( 'NONE',  ( 0.000000000000000000, 0.000000000000000000, 503.0000000000000000 ) ) ;
#276 = CIRCLE ( 'NONE', #174, 5.000000000000000000 ) ;
#277 = ORIENTED_EDGE ( 'NONE', *, *, #159, .F. ) ;
#278 = EDGE_LOOP ( 'NONE', ( #226, #46, #221, #72 ) ) ;
#279 = DIRECTION ( 'NONE',  ( -1.000000000000000000, 1.224646799147353207E-16, 0.000000000000000000 ) ) ;
#280 = CIRCLE ( 'NONE', #255, 5.000000000000000000 ) ;
#281 = FACE_OUTER_BOUND ( 'NONE', #13, .T. ) ;
#282 = EDGE_CURVE ( 'NONE', #51, #267, #182, .T. ) ;
#283 = DIRECTION ( 'NONE',  ( -0.000000000000000000, -0.000000000000000000, -1.000000000000000000 ) ) ;
#284 = DIRECTION ( 'NONE',  ( 1.000000000000000000, 0.000000000000000000, -0.000000000000000000 ) ) ;
#285 = DIRECTION ( 'NONE',  ( 1.000000000000000000, 0.000000000000000000, 0.000000000000000000 ) ) ;
#286 = APPROVAL_PERSON_ORGANIZATION ( #291, #38, #45 ) ;
#287 = CALENDAR_DATE ( 2022, 7, 7 ) ;
#288 = ORIENTED_EDGE ( 'NONE', *, *, #136, .T. ) ;
#289 = EDGE_CURVE ( 'NONE', #26, #51, #29, .T. ) ;
#290 = AXIS2_PLACEMENT_3D ( 'NONE', #273, #179, #155 ) ;
#291 = PERSON_AND_ORGANIZATION ( #237, #19 ) ;
#292 = AXIS2_PLACEMENT_3D ( 'NONE', #91, #164, #187 ) ;
#293 = APPLICATION_PROTOCOL_DEFINITION ( 'international standard', 'config_control_design', 1994, #73 ) ;
#294 =( NAMED_UNIT ( * ) PLANE_ANGLE_UNIT ( ) SI_UNIT ( $, .RADIAN. ) );
#295 = AXIS2_PLACEMENT_3D ( 'NONE', #101, #249, #54 ) ;
#296 = CARTESIAN_POINT ( 'NONE',  ( 2.700000000000000178, 0.000000000000000000, 2.999999999999990674 ) ) ;
#297 = VECTOR ( 'NONE', #283, 1000.000000000000000 ) ;
#298 = ORIENTED_EDGE ( 'NONE', *, *, #222, .F. ) ;
#299 = ADVANCED_FACE ( 'NONE', ( #162 ), #211, .T. ) ;
#300 = CARTESIAN_POINT ( 'NONE',  ( -2.500000000000000000, 0.000000000000000000, 3.199999999999980638 ) ) ;
#301 = PRODUCT_DEFINITION_SHAPE ( 'NONE', 'NONE',  #57 ) ;
#302 = PRODUCT_RELATED_PRODUCT_CATEGORY ( 'detail', '', ( #114 ) ) ;
#303 = ORIENTED_EDGE ( 'NONE', *, *, #222, .T. ) ;
#304 = CC_DESIGN_SECURITY_CLASSIFICATION ( #64, ( #92 ) ) ;
#305 = CARTESIAN_POINT ( 'NONE',  ( 0.000000000000000000, 0.000000000000000000, 503.0000000000000000 ) ) ;
#306 = DIRECTION ( 'NONE',  ( 1.224646799147353207E-16, 1.000000000000000000, -0.000000000000000000 ) ) ;
#307 = CARTESIAN_POINT ( 'NONE',  ( 0.000000000000000000, 0.000000000000000000, 3.199999999999980638 ) ) ;
ENDSEC;
END-ISO-10303-21;
