ISO-10303-21;
HEADER;
FILE_DESCRIPTION (( 'STEP AP203' ),
    '1' );
FILE_NAME ('6840.STEP',
    '2022-07-10T12:29:19',
    ( '' ),
    ( '' ),
    'SwSTEP 2.0',
    'SolidWorks 2019',
    '' );
FILE_SCHEMA (( 'CONFIG_CONTROL_DESIGN' ));
ENDSEC;

DATA;
#1 = DIRECTION ( 'NONE',  ( -0.000000000000000000, -0.000000000000000000, -1.000000000000000000 ) ) ;
#2 = PRODUCT_DEFINITION_FORMATION_WITH_SPECIFIED_SOURCE ( 'LIBOVOLNÝ', '', #304, .NOT_KNOWN. ) ;
#3 = LINE ( 'NONE', #258, #200 ) ;
#4 = CARTESIAN_POINT ( 'NONE',  ( 0.7500000000000000000, 0.000000000000000000, 1.399999999999998579 ) ) ;
#5 = FACE_OUTER_BOUND ( 'NONE', #235, .T. ) ;
#6 = AXIS2_PLACEMENT_3D ( 'NONE', #26, #45, #41 ) ;
#7 = EDGE_LOOP ( 'NONE', ( #29, #33, #119, #74 ) ) ;
#8 = DIRECTION ( 'NONE',  ( 1.000000000000000000, 0.000000000000000000, -0.000000000000000000 ) ) ;
#9 = ADVANCED_FACE ( 'NONE', ( #113 ), #251, .T. ) ;
#10 = CARTESIAN_POINT ( 'NONE',  ( 0.000000000000000000, 0.000000000000000000, 1.199999999999999956 ) ) ;
#11 = ORIENTED_EDGE ( 'NONE', *, *, #226, .T. ) ;
#12 = ORIENTED_EDGE ( 'NONE', *, *, #237, .F. ) ;
#13 = VECTOR ( 'NONE', #1, 1000.000000000000000 ) ;
#14 = LOCAL_TIME ( 14, 29, 19.00000000000000000, #78 ) ;
#15 = DIRECTION ( 'NONE',  ( -1.000000000000000000, 0.000000000000000000, 0.000000000000000000 ) ) ;
#16 = VERTEX_POINT ( 'NONE', #204 ) ;
#17 = DIRECTION ( 'NONE',  ( 1.000000000000000000, 0.000000000000000000, 0.000000000000000000 ) ) ;
#18 = PERSON_AND_ORGANIZATION ( #272, #135 ) ;
#19 = EDGE_CURVE ( 'NONE', #259, #185, #220, .T. ) ;
#20 = DATE_AND_TIME ( #199, #97 ) ;
#21 = APPROVAL_DATE_TIME ( #201, #205 ) ;
#22 = APPROVAL_PERSON_ORGANIZATION ( #38, #131, #171 ) ;
#23 = CARTESIAN_POINT ( 'NONE',  ( 0.000000000000000000, 0.000000000000000000, 1.199999999999999956 ) ) ;
#24 = FACE_OUTER_BOUND ( 'NONE', #287, .T. ) ;
#25 = CC_DESIGN_PERSON_AND_ORGANIZATION_ASSIGNMENT ( #105, #242, ( #168 ) ) ;
#26 = CARTESIAN_POINT ( 'NONE',  ( 0.000000000000000000, 0.000000000000000000, 1.199999999999999956 ) ) ;
#27 = CARTESIAN_POINT ( 'NONE',  ( 0.000000000000000000, 0.000000000000000000, 1.399999999999998579 ) ) ;
#28 = AXIS2_PLACEMENT_3D ( 'NONE', #27, #73, #70 ) ;
#29 = ORIENTED_EDGE ( 'NONE', *, *, #196, .F. ) ;
#30 = CYLINDRICAL_SURFACE ( 'NONE', #115, 1.250000000000000000 ) ;
#31 = ORIENTED_EDGE ( 'NONE', *, *, #307, .T. ) ;
#32 = DIRECTION ( 'NONE',  ( 0.000000000000000000, 0.000000000000000000, 1.000000000000000000 ) ) ;
#33 = ORIENTED_EDGE ( 'NONE', *, *, #89, .T. ) ;
#34 = COORDINATED_UNIVERSAL_TIME_OFFSET ( 1, 0, .AHEAD. ) ;
#35 = EDGE_CURVE ( 'NONE', #98, #213, #178, .T. ) ;
#36 = AXIS2_PLACEMENT_3D ( 'NONE', #64, #207, #63 ) ;
#37 = DATE_AND_TIME ( #102, #222 ) ;
#38 = PERSON_AND_ORGANIZATION ( #272, #135 ) ;
#39 = UNCERTAINTY_MEASURE_WITH_UNIT (LENGTH_MEASURE( 1.000000000000000082E-05 ), #214, 'distance_accuracy_value', 'NONE');
#40 = CIRCLE ( 'NONE', #28, 0.5500000000000000444 ) ;
#41 = DIRECTION ( 'NONE',  ( 1.000000000000000000, 0.000000000000000000, 0.000000000000000000 ) ) ;
#42 = DIRECTION ( 'NONE',  ( 1.000000000000000000, 0.000000000000000000, 0.000000000000000000 ) ) ;
#43 = EDGE_CURVE ( 'NONE', #185, #259, #152, .T. ) ;
#44 = DIRECTION ( 'NONE',  ( 0.000000000000000000, 0.000000000000000000, 1.000000000000000000 ) ) ;
#45 = DIRECTION ( 'NONE',  ( -0.000000000000000000, -0.000000000000000000, -1.000000000000000000 ) ) ;
#46 = ORIENTED_EDGE ( 'NONE', *, *, #43, .F. ) ;
#47 = DIRECTION ( 'NONE',  ( -0.000000000000000000, -0.000000000000000000, -1.000000000000000000 ) ) ;
#48 = EDGE_LOOP ( 'NONE', ( #137, #117, #46, #69 ) ) ;
#49 = CC_DESIGN_APPROVAL ( #205, ( #168 ) ) ;
#50 = FACE_BOUND ( 'NONE', #238, .T. ) ;
#51 = VERTEX_POINT ( 'NONE', #279 ) ;
#52 = EDGE_CURVE ( 'NONE', #93, #185, #134, .T. ) ;
#53 = ORIENTED_EDGE ( 'NONE', *, *, #52, .T. ) ;
#54 = CIRCLE ( 'NONE', #163, 0.1999999999999999833 ) ;
#55 = LOCAL_TIME ( 14, 29, 19.00000000000000000, #173 ) ;
#56 = CARTESIAN_POINT ( 'NONE',  ( 0.000000000000000000, 0.000000000000000000, 1.199999999999999956 ) ) ;
#57 = COORDINATED_UNIVERSAL_TIME_OFFSET ( 1, 0, .AHEAD. ) ;
#58 = PERSON_AND_ORGANIZATION_ROLE ( 'creator' ) ;
#59 = AXIS2_PLACEMENT_3D ( 'NONE', #4, #66, #155 ) ;
#60 = APPROVAL_ROLE ( '' ) ;
#61 = CARTESIAN_POINT ( 'NONE',  ( -1.250000000000000000, 0.000000000000000000, 0.000000000000000000 ) ) ;
#62 = ADVANCED_FACE ( 'NONE', ( #184 ), #245, .F. ) ;
#63 = DIRECTION ( 'NONE',  ( -1.000000000000000000, 0.000000000000000000, 0.000000000000000000 ) ) ;
#64 = CARTESIAN_POINT ( 'NONE',  ( 0.000000000000000000, 0.000000000000000000, 100.7000000000000171 ) ) ;
#65 = DIRECTION ( 'NONE',  ( 0.000000000000000000, 0.000000000000000000, 1.000000000000000000 ) ) ;
#66 = DIRECTION ( 'NONE',  ( 0.000000000000000000, -1.000000000000000000, 0.000000000000000000 ) ) ;
#67 = ORIENTED_EDGE ( 'NONE', *, *, #300, .T. ) ;
#68 = CARTESIAN_POINT ( 'NONE',  ( 0.000000000000000000, 0.000000000000000000, 1.199999999999999956 ) ) ;
#69 = ORIENTED_EDGE ( 'NONE', *, *, #52, .F. ) ;
#70 = DIRECTION ( 'NONE',  ( 1.000000000000000000, 0.000000000000000000, 0.000000000000000000 ) ) ;
#71 = AXIS2_PLACEMENT_3D ( 'NONE', #252, #86, #180 ) ;
#72 = EDGE_LOOP ( 'NONE', ( #161, #211, #67, #294 ) ) ;
#73 = DIRECTION ( 'NONE',  ( 0.000000000000000000, 0.000000000000000000, 1.000000000000000000 ) ) ;
#74 = ORIENTED_EDGE ( 'NONE', *, *, #112, .F. ) ;
#75 = DIRECTION ( 'NONE',  ( 0.000000000000000000, 0.000000000000000000, 1.000000000000000000 ) ) ;
#76 = CARTESIAN_POINT ( 'NONE',  ( 0.000000000000000000, 0.000000000000000000, 1.399999999999998579 ) ) ;
#77 = CALENDAR_DATE ( 2022, 10, 7 ) ;
#78 = COORDINATED_UNIVERSAL_TIME_OFFSET ( 1, 0, .AHEAD. ) ;
#79 = VECTOR ( 'NONE', #91, 1000.000000000000000 ) ;
#80 = APPROVAL_DATE_TIME ( #225, #125 ) ;
#81 = PERSON_AND_ORGANIZATION_ROLE ( 'design_supplier' ) ;
#82 = DIRECTION ( 'NONE',  ( 0.000000000000000000, 0.000000000000000000, 1.000000000000000000 ) ) ;
#83 = AXIS2_PLACEMENT_3D ( 'NONE', #265, #286, #260 ) ;
#84 = CC_DESIGN_SECURITY_CLASSIFICATION ( #292, ( #2 ) ) ;
#85 = CARTESIAN_POINT ( 'NONE',  ( -1.250000000000000000, 0.000000000000000000, 1.199999999999999956 ) ) ;
#86 = DIRECTION ( 'NONE',  ( -0.000000000000000000, -0.000000000000000000, -1.000000000000000000 ) ) ;
#87 = CARTESIAN_POINT ( 'NONE',  ( 0.000000000000000000, 0.000000000000000000, 100.7000000000000171 ) ) ;
#88 = CARTESIAN_POINT ( 'NONE',  ( -1.250000000000000000, 0.000000000000000000, 1.199999999999999956 ) ) ;
#89 = EDGE_CURVE ( 'NONE', #16, #93, #276, .T. ) ;
#90 = ORIENTED_EDGE ( 'NONE', *, *, #35, .T. ) ;
#91 = DIRECTION ( 'NONE',  ( -0.000000000000000000, -0.000000000000000000, -1.000000000000000000 ) ) ;
#92 = CARTESIAN_POINT ( 'NONE',  ( 0.000000000000000000, 0.000000000000000000, 0.000000000000000000 ) ) ;
#93 = VERTEX_POINT ( 'NONE', #284 ) ;
#94 = ADVANCED_FACE ( 'NONE', ( #158 ), #253, .T. ) ;
#95 =( NAMED_UNIT ( * ) PLANE_ANGLE_UNIT ( ) SI_UNIT ( $, .RADIAN. ) );
#96 = AXIS2_PLACEMENT_3D ( 'NONE', #293, #32, #234 ) ;
#97 = LOCAL_TIME ( 14, 29, 19.00000000000000000, #57 ) ;
#98 = VERTEX_POINT ( 'NONE', #85 ) ;
#99 = DIRECTION ( 'NONE',  ( 0.000000000000000000, 0.000000000000000000, 1.000000000000000000 ) ) ;
#100 = EDGE_LOOP ( 'NONE', ( #164, #12, #90, #31 ) ) ;
#101 = APPLICATION_PROTOCOL_DEFINITION ( 'international standard', 'config_control_design', 1994, #247 ) ;
#102 = CALENDAR_DATE ( 2022, 10, 7 ) ;
#103 = AXIS2_PLACEMENT_3D ( 'NONE', #114, #99, #17 ) ;
#104 = COORDINATED_UNIVERSAL_TIME_OFFSET ( 1, 0, .AHEAD. ) ;
#105 = PERSON_AND_ORGANIZATION ( #272, #135 ) ;
#106 = AXIS2_PLACEMENT_3D ( 'NONE', #189, #162, #217 ) ;
#107 = PRODUCT_DEFINITION_SHAPE ( 'NONE', 'NONE',  #168 ) ;
#108 = CARTESIAN_POINT ( 'NONE',  ( -0.5500000000000000444, 0.000000000000000000, 100.7000000000000171 ) ) ;
#109 = CARTESIAN_POINT ( 'NONE',  ( 0.5500000000000000444, 6.735557395310442516E-17, 100.7000000000000171 ) ) ;
#110 = CARTESIAN_POINT ( 'NONE',  ( -0.5500000000000000444, 0.000000000000000000, 1.399999999999998579 ) ) ;
#111 = DIRECTION ( 'NONE',  ( 0.000000000000000000, 0.000000000000000000, 1.000000000000000000 ) ) ;
#112 = EDGE_CURVE ( 'NONE', #190, #143, #3, .T. ) ;
#113 = FACE_OUTER_BOUND ( 'NONE', #7, .T. ) ;
#114 = CARTESIAN_POINT ( 'NONE',  ( 0.000000000000000000, 0.000000000000000000, 1.199999999999999956 ) ) ;
#115 = AXIS2_PLACEMENT_3D ( 'NONE', #56, #146, #118 ) ;
#116 = ADVANCED_BREP_SHAPE_REPRESENTATION ( '6840', ( #203, #291 ), #244 ) ;
#117 = ORIENTED_EDGE ( 'NONE', *, *, #278, .T. ) ;
#118 = DIRECTION ( 'NONE',  ( -1.000000000000000000, 0.000000000000000000, 0.000000000000000000 ) ) ;
#119 = ORIENTED_EDGE ( 'NONE', *, *, #230, .T. ) ;
#120 = APPLICATION_CONTEXT ( 'configuration controlled 3d designs of mechanical parts and assemblies' ) ;
#121 = DIRECTION ( 'NONE',  ( 1.000000000000000000, 0.000000000000000000, 0.000000000000000000 ) ) ;
#122 = ORIENTED_EDGE ( 'NONE', *, *, #246, .F. ) ;
#123 = LOCAL_TIME ( 14, 29, 19.00000000000000000, #104 ) ;
#124 = ORIENTED_EDGE ( 'NONE', *, *, #307, .F. ) ;
#125 = APPROVAL ( #301, 'NEURÈENÝ' ) ;
#126 = APPROVAL_ROLE ( '' ) ;
#127 = AXIS2_PLACEMENT_3D ( 'NONE', #139, #167, #169 ) ;
#128 = PERSON_AND_ORGANIZATION ( #272, #135 ) ;
#129 = DIRECTION ( 'NONE',  ( 1.000000000000000000, 0.000000000000000000, 0.000000000000000000 ) ) ;
#130 = TOROIDAL_SURFACE ( 'NONE', #191, 0.7500000000000000000, 0.2000000000000000111 ) ;
#131 = APPROVAL ( #172, 'NEURÈENÝ' ) ;
#132 = ORIENTED_EDGE ( 'NONE', *, *, #246, .T. ) ;
#133 = DIRECTION ( 'NONE',  ( 1.000000000000000000, 0.000000000000000000, 0.000000000000000000 ) ) ;
#134 = CIRCLE ( 'NONE', #59, 0.2000000000000000944 ) ;
#135 = ORGANIZATION ( 'NEURÈENÝ', 'NEURÈENÝ', '' ) ;
#136 = PRODUCT_RELATED_PRODUCT_CATEGORY ( 'detail', '', ( #304 ) ) ;
#137 = ORIENTED_EDGE ( 'NONE', *, *, #226, .F. ) ;
#138 = CC_DESIGN_PERSON_AND_ORGANIZATION_ASSIGNMENT ( #128, #147, ( #292 ) ) ;
#139 = CARTESIAN_POINT ( 'NONE',  ( 0.000000000000000000, 0.000000000000000000, 100.7000000000000171 ) ) ;
#140 = AXIS2_PLACEMENT_3D ( 'NONE', #92, #75, #121 ) ;
#141 = EDGE_LOOP ( 'NONE', ( #218, #153 ) ) ;
#142 = FACE_OUTER_BOUND ( 'NONE', #141, .T. ) ;
#143 = VERTEX_POINT ( 'NONE', #110 ) ;
#144 = ORIENTED_EDGE ( 'NONE', *, *, #278, .F. ) ;
#145 = ADVANCED_FACE ( 'NONE', ( #154 ), #130, .F. ) ;
#146 = DIRECTION ( 'NONE',  ( -0.000000000000000000, -0.000000000000000000, -1.000000000000000000 ) ) ;
#147 = PERSON_AND_ORGANIZATION_ROLE ( 'classification_officer' ) ;
#148 = APPROVAL_DATE_TIME ( #37, #131 ) ;
#149 = AXIS2_PLACEMENT_3D ( 'NONE', #76, #209, #195 ) ;
#150 = PERSON_AND_ORGANIZATION ( #272, #135 ) ;
#151 = APPLICATION_PROTOCOL_DEFINITION ( 'international standard', 'config_control_design', 1994, #120 ) ;
#152 = CIRCLE ( 'NONE', #6, 0.7500000000000000000 ) ;
#153 = ORIENTED_EDGE ( 'NONE', *, *, #263, .T. ) ;
#154 = FACE_OUTER_BOUND ( 'NONE', #187, .T. ) ;
#155 = DIRECTION ( 'NONE',  ( 0.000000000000000000, 0.000000000000000000, -1.000000000000000000 ) ) ;
#156 = CIRCLE ( 'NONE', #83, 1.250000000000000000 ) ;
#157 = DIRECTION ( 'NONE',  ( 1.000000000000000000, 0.000000000000000000, 0.000000000000000000 ) ) ;
#158 = FACE_OUTER_BOUND ( 'NONE', #240, .T. ) ;
#159 = VERTEX_POINT ( 'NONE', #231 ) ;
#160 = DIRECTION ( 'NONE',  ( -1.000000000000000000, 1.224646799147353454E-16, 0.000000000000000000 ) ) ;
#161 = ORIENTED_EDGE ( 'NONE', *, *, #263, .F. ) ;
#162 = DIRECTION ( 'NONE',  ( 0.000000000000000000, 0.000000000000000000, 1.000000000000000000 ) ) ;
#163 = AXIS2_PLACEMENT_3D ( 'NONE', #212, #295, #160 ) ;
#164 = ORIENTED_EDGE ( 'NONE', *, *, #274, .F. ) ;
#165 = FACE_OUTER_BOUND ( 'NONE', #72, .T. ) ;
#166 = ORIENTED_EDGE ( 'NONE', *, *, #196, .T. ) ;
#167 = DIRECTION ( 'NONE',  ( 0.000000000000000000, 0.000000000000000000, 1.000000000000000000 ) ) ;
#168 = PRODUCT_DEFINITION ( 'NEZNÁMÝ', '', #2, #256 ) ;
#169 = DIRECTION ( 'NONE',  ( 1.000000000000000000, 0.000000000000000000, 0.000000000000000000 ) ) ;
#170 = AXIS2_PLACEMENT_3D ( 'NONE', #87, #82, #229 ) ;
#171 = APPROVAL_ROLE ( '' ) ;
#172 = APPROVAL_STATUS ( 'not_yet_approved' ) ;
#173 = COORDINATED_UNIVERSAL_TIME_OFFSET ( 1, 0, .AHEAD. ) ;
#174 = CIRCLE ( 'NONE', #149, 0.5500000000000000444 ) ;
#175 = SECURITY_CLASSIFICATION_LEVEL ( 'unclassified' ) ;
#176 = CARTESIAN_POINT ( 'NONE',  ( 0.000000000000000000, 0.000000000000000000, 1.399999999999998579 ) ) ;
#177 = CLOSED_SHELL ( 'NONE', ( #62, #9, #250, #241, #288, #221, #94, #202, #145 ) ) ;
#178 = LINE ( 'NONE', #88, #182 ) ;
#179 = CC_DESIGN_PERSON_AND_ORGANIZATION_ASSIGNMENT ( #18, #243, ( #304 ) ) ;
#180 = DIRECTION ( 'NONE',  ( -1.000000000000000000, 0.000000000000000000, 0.000000000000000000 ) ) ;
#181 = DIRECTION ( 'NONE',  ( -0.000000000000000000, -0.000000000000000000, -1.000000000000000000 ) ) ;
#182 = VECTOR ( 'NONE', #280, 1000.000000000000000 ) ;
#183 = APPROVAL_PERSON_ORGANIZATION ( #275, #125, #60 ) ;
#184 = FACE_OUTER_BOUND ( 'NONE', #48, .T. ) ;
#185 = VERTEX_POINT ( 'NONE', #227 ) ;
#186 = DIRECTION ( 'NONE',  ( 0.000000000000000000, 0.000000000000000000, 1.000000000000000000 ) ) ;
#187 = EDGE_LOOP ( 'NONE', ( #144, #215, #53, #193 ) ) ;
#188 = CC_DESIGN_PERSON_AND_ORGANIZATION_ASSIGNMENT ( #271, #58, ( #2 ) ) ;
#189 = CARTESIAN_POINT ( 'NONE',  ( 0.000000000000000000, 0.000000000000000000, 1.199999999999999956 ) ) ;
#190 = VERTEX_POINT ( 'NONE', #108 ) ;
#191 = AXIS2_PLACEMENT_3D ( 'NONE', #176, #65, #42 ) ;
#192 = LINE ( 'NONE', #194, #79 ) ;
#193 = ORIENTED_EDGE ( 'NONE', *, *, #19, .F. ) ;
#194 = CARTESIAN_POINT ( 'NONE',  ( 1.250000000000000000, 1.530808498934191571E-16, 1.199999999999999956 ) ) ;
#195 = DIRECTION ( 'NONE',  ( 1.000000000000000000, 0.000000000000000000, 0.000000000000000000 ) ) ;
#196 = EDGE_CURVE ( 'NONE', #16, #190, #248, .T. ) ;
#197 = MECHANICAL_CONTEXT ( 'NONE', #247, 'mechanical' ) ;
#198 = DATE_TIME_ROLE ( 'classification_date' ) ;
#199 = CALENDAR_DATE ( 2022, 10, 7 ) ;
#200 = VECTOR ( 'NONE', #181, 1000.000000000000000 ) ;
#201 = DATE_AND_TIME ( #77, #123 ) ;
#202 = ADVANCED_FACE ( 'NONE', ( #5 ), #281, .T. ) ;
#203 = MANIFOLD_SOLID_BREP ( 'Zaoblit1', #177 ) ;
#204 = CARTESIAN_POINT ( 'NONE',  ( 0.5500000000000000444, 6.735557395310442516E-17, 100.7000000000000171 ) ) ;
#205 = APPROVAL ( #224, 'NEURÈENÝ' ) ;
#206 = DIRECTION ( 'NONE',  ( -0.000000000000000000, -0.000000000000000000, -1.000000000000000000 ) ) ;
#207 = DIRECTION ( 'NONE',  ( -0.000000000000000000, -0.000000000000000000, -1.000000000000000000 ) ) ;
#208 = DIRECTION ( 'NONE',  ( 1.000000000000000000, 0.000000000000000000, 0.000000000000000000 ) ) ;
#209 = DIRECTION ( 'NONE',  ( 0.000000000000000000, 0.000000000000000000, 1.000000000000000000 ) ) ;
#210 = CC_DESIGN_DATE_AND_TIME_ASSIGNMENT ( #302, #198, ( #292 ) ) ;
#211 = ORIENTED_EDGE ( 'NONE', *, *, #274, .T. ) ;
#212 = CARTESIAN_POINT ( 'NONE',  ( -0.7500000000000000000, 9.184850993605149670E-17, 1.399999999999998579 ) ) ;
#213 = VERTEX_POINT ( 'NONE', #61 ) ;
#214 =( LENGTH_UNIT ( ) NAMED_UNIT ( * ) SI_UNIT ( .MILLI., .METRE. ) );
#215 = ORIENTED_EDGE ( 'NONE', *, *, #230, .F. ) ;
#216 = CIRCLE ( 'NONE', #106, 1.250000000000000000 ) ;
#217 = DIRECTION ( 'NONE',  ( 1.000000000000000000, 0.000000000000000000, 0.000000000000000000 ) ) ;
#218 = ORIENTED_EDGE ( 'NONE', *, *, #237, .T. ) ;
#219 = CALENDAR_DATE ( 2022, 10, 7 ) ;
#220 = CIRCLE ( 'NONE', #297, 0.7500000000000000000 ) ;
#221 = ADVANCED_FACE ( 'NONE', ( #24 ), #255, .F. ) ;
#222 = LOCAL_TIME ( 14, 29, 19.00000000000000000, #34 ) ;
#223 = CALENDAR_DATE ( 2022, 10, 7 ) ;
#224 = APPROVAL_STATUS ( 'not_yet_approved' ) ;
#225 = DATE_AND_TIME ( #219, #55 ) ;
#226 = EDGE_CURVE ( 'NONE', #143, #93, #174, .T. ) ;
#227 = CARTESIAN_POINT ( 'NONE',  ( 0.7500000000000000000, 0.000000000000000000, 1.199999999999999289 ) ) ;
#228 = CARTESIAN_POINT ( 'NONE',  ( 0.000000000000000000, 0.000000000000000000, 1.399999999999998579 ) ) ;
#229 = DIRECTION ( 'NONE',  ( 1.000000000000000000, 0.000000000000000000, -0.000000000000000000 ) ) ;
#230 = EDGE_CURVE ( 'NONE', #93, #143, #40, .T. ) ;
#231 = CARTESIAN_POINT ( 'NONE',  ( 1.250000000000000000, 1.530808498934191571E-16, 1.199999999999999956 ) ) ;
#232 = ORIENTED_EDGE ( 'NONE', *, *, #43, .T. ) ;
#233 = CIRCLE ( 'NONE', #103, 1.250000000000000000 ) ;
#234 = DIRECTION ( 'NONE',  ( 1.000000000000000000, 0.000000000000000000, -0.000000000000000000 ) ) ;
#235 = EDGE_LOOP ( 'NONE', ( #132, #166 ) ) ;
#236 = PLANE ( 'NONE',  #277 ) ;
#237 = EDGE_CURVE ( 'NONE', #98, #159, #216, .T. ) ;
#238 = EDGE_LOOP ( 'NONE', ( #232, #261 ) ) ;
#239 =( NAMED_UNIT ( * ) SI_UNIT ( $, .STERADIAN. ) SOLID_ANGLE_UNIT ( ) );
#240 = EDGE_LOOP ( 'NONE', ( #285, #122, #296, #11 ) ) ;
#241 = ADVANCED_FACE ( 'NONE', ( #289 ), #264, .T. ) ;
#242 = PERSON_AND_ORGANIZATION_ROLE ( 'creator' ) ;
#243 = PERSON_AND_ORGANIZATION_ROLE ( 'design_owner' ) ;
#244 =( GEOMETRIC_REPRESENTATION_CONTEXT ( 3 ) GLOBAL_UNCERTAINTY_ASSIGNED_CONTEXT ( ( #39 ) ) GLOBAL_UNIT_ASSIGNED_CONTEXT ( ( #214, #95, #239 ) ) REPRESENTATION_CONTEXT ( 'NONE', 'WORKASPACE' ) );
#245 = TOROIDAL_SURFACE ( 'NONE', #266, 0.7500000000000000000, 0.2000000000000000111 ) ;
#246 = EDGE_CURVE ( 'NONE', #190, #16, #282, .T. ) ;
#247 = APPLICATION_CONTEXT ( 'configuration controlled 3d designs of mechanical parts and assemblies' ) ;
#248 = CIRCLE ( 'NONE', #303, 0.5500000000000000444 ) ;
#249 = CC_DESIGN_APPROVAL ( #131, ( #2 ) ) ;
#250 = ADVANCED_FACE ( 'NONE', ( #165 ), #30, .T. ) ;
#251 = CYLINDRICAL_SURFACE ( 'NONE', #71, 0.5500000000000000444 ) ;
#252 = CARTESIAN_POINT ( 'NONE',  ( 0.000000000000000000, 0.000000000000000000, 100.7000000000000171 ) ) ;
#253 = CYLINDRICAL_SURFACE ( 'NONE', #36, 0.5500000000000000444 ) ;
#254 = AXIS2_PLACEMENT_3D ( 'NONE', #68, #47, #15 ) ;
#255 = PLANE ( 'NONE',  #96 ) ;
#256 = DESIGN_CONTEXT ( 'detailed design', #120, 'design' ) ;
#257 = CC_DESIGN_DATE_AND_TIME_ASSIGNMENT ( #20, #305, ( #168 ) ) ;
#258 = CARTESIAN_POINT ( 'NONE',  ( -0.5500000000000000444, 0.000000000000000000, 100.7000000000000171 ) ) ;
#259 = VERTEX_POINT ( 'NONE', #267 ) ;
#260 = DIRECTION ( 'NONE',  ( 1.000000000000000000, 0.000000000000000000, 0.000000000000000000 ) ) ;
#261 = ORIENTED_EDGE ( 'NONE', *, *, #19, .T. ) ;
#262 = CIRCLE ( 'NONE', #140, 1.250000000000000000 ) ;
#263 = EDGE_CURVE ( 'NONE', #159, #98, #233, .T. ) ;
#264 = CYLINDRICAL_SURFACE ( 'NONE', #254, 1.250000000000000000 ) ;
#265 = CARTESIAN_POINT ( 'NONE',  ( 0.000000000000000000, 0.000000000000000000, 0.000000000000000000 ) ) ;
#266 = AXIS2_PLACEMENT_3D ( 'NONE', #228, #111, #133 ) ;
#267 = CARTESIAN_POINT ( 'NONE',  ( -0.7500000000000000000, 9.184850993605149670E-17, 1.199999999999999289 ) ) ;
#268 = CC_DESIGN_APPROVAL ( #125, ( #292 ) ) ;
#269 = CC_DESIGN_PERSON_AND_ORGANIZATION_ASSIGNMENT ( #150, #81, ( #2 ) ) ;
#270 = DIRECTION ( 'NONE',  ( 0.000000000000000000, 0.000000000000000000, 1.000000000000000000 ) ) ;
#271 = PERSON_AND_ORGANIZATION ( #272, #135 ) ;
#272 = PERSON ( 'NEURÈENÝ', 'NEURÈENÝ', 'NEURÈENÝ', ('NEURÈENÝ'), ('NEURÈENÝ'), ('NEURÈENÝ') ) ;
#273 = SHAPE_DEFINITION_REPRESENTATION ( #107, #116 ) ;
#274 = EDGE_CURVE ( 'NONE', #159, #51, #192, .T. ) ;
#275 = PERSON_AND_ORGANIZATION ( #272, #135 ) ;
#276 = LINE ( 'NONE', #109, #13 ) ;
#277 = AXIS2_PLACEMENT_3D ( 'NONE', #10, #186, #8 ) ;
#278 = EDGE_CURVE ( 'NONE', #143, #259, #54, .T. ) ;
#279 = CARTESIAN_POINT ( 'NONE',  ( 1.250000000000000000, 1.530808498934191571E-16, 0.000000000000000000 ) ) ;
#280 = DIRECTION ( 'NONE',  ( -0.000000000000000000, -0.000000000000000000, -1.000000000000000000 ) ) ;
#281 = PLANE ( 'NONE',  #170 ) ;
#282 = CIRCLE ( 'NONE', #127, 0.5500000000000000444 ) ;
#283 = APPROVAL_PERSON_ORGANIZATION ( #299, #205, #126 ) ;
#284 = CARTESIAN_POINT ( 'NONE',  ( 0.5500000000000000444, 6.735557395310442516E-17, 1.399999999999998579 ) ) ;
#285 = ORIENTED_EDGE ( 'NONE', *, *, #89, .F. ) ;
#286 = DIRECTION ( 'NONE',  ( 0.000000000000000000, 0.000000000000000000, 1.000000000000000000 ) ) ;
#287 = EDGE_LOOP ( 'NONE', ( #124, #290 ) ) ;
#288 = ADVANCED_FACE ( 'NONE', ( #50, #142 ), #236, .T. ) ;
#289 = FACE_OUTER_BOUND ( 'NONE', #100, .T. ) ;
#290 = ORIENTED_EDGE ( 'NONE', *, *, #300, .F. ) ;
#291 = AXIS2_PLACEMENT_3D ( 'NONE', #298, #270, #129 ) ;
#292 = SECURITY_CLASSIFICATION ( '', '', #175 ) ;
#293 = CARTESIAN_POINT ( 'NONE',  ( 0.000000000000000000, 0.000000000000000000, 0.000000000000000000 ) ) ;
#294 = ORIENTED_EDGE ( 'NONE', *, *, #35, .F. ) ;
#295 = DIRECTION ( 'NONE',  ( 1.224646799147353207E-16, 1.000000000000000000, -0.000000000000000000 ) ) ;
#296 = ORIENTED_EDGE ( 'NONE', *, *, #112, .T. ) ;
#297 = AXIS2_PLACEMENT_3D ( 'NONE', #23, #206, #157 ) ;
#298 = CARTESIAN_POINT ( 'NONE',  ( 0.000000000000000000, 0.000000000000000000, 0.000000000000000000 ) ) ;
#299 = PERSON_AND_ORGANIZATION ( #272, #135 ) ;
#300 = EDGE_CURVE ( 'NONE', #51, #213, #156, .T. ) ;
#301 = APPROVAL_STATUS ( 'not_yet_approved' ) ;
#302 = DATE_AND_TIME ( #223, #14 ) ;
#303 = AXIS2_PLACEMENT_3D ( 'NONE', #306, #44, #208 ) ;
#304 = PRODUCT ( '6840', '6840', '', ( #197 ) ) ;
#305 = DATE_TIME_ROLE ( 'creation_date' ) ;
#306 = CARTESIAN_POINT ( 'NONE',  ( 0.000000000000000000, 0.000000000000000000, 100.7000000000000171 ) ) ;
#307 = EDGE_CURVE ( 'NONE', #213, #51, #262, .T. ) ;
ENDSEC;
END-ISO-10303-21;
