ISO-10303-21;
HEADER;
FILE_DESCRIPTION (( 'STEP AP203' ),
    '1' );
FILE_NAME ('c734.STEP',
    '2022-07-07T10:10:27',
    ( '' ),
    ( '' ),
    'SwSTEP 2.0',
    'SolidWorks 2019',
    '' );
FILE_SCHEMA (( 'CONFIG_CONTROL_DESIGN' ));
ENDSEC;

DATA;
#1 = SHAPE_DEFINITION_REPRESENTATION ( #240, #287 ) ;
#2 = CLOSED_SHELL ( 'NONE', ( #216, #74, #151, #58, #184, #257, #43, #96, #234 ) ) ;
#3 = EDGE_CURVE ( 'NONE', #249, #197, #122, .T. ) ;
#4 = AXIS2_PLACEMENT_3D ( 'NONE', #71, #282, #190 ) ;
#5 = DATE_AND_TIME ( #124, #199 ) ;
#6 = ORIENTED_EDGE ( 'NONE', *, *, #3, .F. ) ;
#7 = FACE_OUTER_BOUND ( 'NONE', #198, .T. ) ;
#8 = APPROVAL_PERSON_ORGANIZATION ( #147, #100, #217 ) ;
#9 = FACE_OUTER_BOUND ( 'NONE', #61, .T. ) ;
#10 = UNCERTAINTY_MEASURE_WITH_UNIT (LENGTH_MEASURE( 1.000000000000000082E-05 ), #89, 'distance_accuracy_value', 'NONE');
#11 = EDGE_LOOP ( 'NONE', ( #80, #270, #207, #227 ) ) ;
#12 = EDGE_CURVE ( 'NONE', #15, #201, #24, .T. ) ;
#13 = ORIENTED_EDGE ( 'NONE', *, *, #168, .T. ) ;
#14 = FACE_OUTER_BOUND ( 'NONE', #60, .T. ) ;
#15 = VERTEX_POINT ( 'NONE', #34 ) ;
#16 = EDGE_LOOP ( 'NONE', ( #206, #178, #88, #251 ) ) ;
#17 = DIRECTION ( 'NONE',  ( 0.000000000000000000, 0.000000000000000000, 1.000000000000000000 ) ) ;
#18 = EDGE_CURVE ( 'NONE', #229, #15, #28, .T. ) ;
#19 =( NAMED_UNIT ( * ) PLANE_ANGLE_UNIT ( ) SI_UNIT ( $, .RADIAN. ) );
#20 = PRODUCT_DEFINITION_FORMATION_WITH_SPECIFIED_SOURCE ( 'LIBOVOLNÝ', '', #56, .NOT_KNOWN. ) ;
#21 = AXIS2_PLACEMENT_3D ( 'NONE', #213, #72, #258 ) ;
#22 = DIRECTION ( 'NONE',  ( 0.000000000000000000, 0.000000000000000000, 1.000000000000000000 ) ) ;
#23 = CARTESIAN_POINT ( 'NONE',  ( 0.000000000000000000, 0.000000000000000000, 5.199999999999982414 ) ) ;
#24 = CIRCLE ( 'NONE', #76, 3.299999999999999822 ) ;
#25 = PERSON_AND_ORGANIZATION_ROLE ( 'design_owner' ) ;
#26 = PERSON_AND_ORGANIZATION ( #209, #119 ) ;
#27 = APPROVAL_ROLE ( '' ) ;
#28 = CIRCLE ( 'NONE', #51, 0.2000000000000000944 ) ;
#29 = AXIS2_PLACEMENT_3D ( 'NONE', #82, #40, #150 ) ;
#30 = ORIENTED_EDGE ( 'NONE', *, *, #3, .T. ) ;
#31 = APPROVAL_DATE_TIME ( #172, #131 ) ;
#32 = EDGE_CURVE ( 'NONE', #248, #130, #242, .T. ) ;
#33 = ORIENTED_EDGE ( 'NONE', *, *, #168, .F. ) ;
#34 = CARTESIAN_POINT ( 'NONE',  ( -3.299999999999999822, 4.041334437186265510E-16, 4.999999999999991118 ) ) ;
#35 = ORIENTED_EDGE ( 'NONE', *, *, #237, .F. ) ;
#36 = ORIENTED_EDGE ( 'NONE', *, *, #87, .T. ) ;
#37 = VERTEX_POINT ( 'NONE', #157 ) ;
#38 = ORIENTED_EDGE ( 'NONE', *, *, #53, .T. ) ;
#39 = APPLICATION_CONTEXT ( 'configuration controlled 3d designs of mechanical parts and assemblies' ) ;
#40 = DIRECTION ( 'NONE',  ( -0.000000000000000000, -0.000000000000000000, -1.000000000000000000 ) ) ;
#41 = CIRCLE ( 'NONE', #254, 3.100000000000000089 ) ;
#42 = DIRECTION ( 'NONE',  ( 1.000000000000000000, 0.000000000000000000, -0.000000000000000000 ) ) ;
#43 = ADVANCED_FACE ( 'NONE', ( #295 ), #81, .T. ) ;
#44 = DIRECTION ( 'NONE',  ( 1.000000000000000000, 0.000000000000000000, 0.000000000000000000 ) ) ;
#45 = CARTESIAN_POINT ( 'NONE',  ( 0.000000000000000000, 0.000000000000000000, 5.000000000000000000 ) ) ;
#46 = TOROIDAL_SURFACE ( 'NONE', #156, 3.299999999999999822, 0.2000000000000000111 ) ;
#47 = CC_DESIGN_PERSON_AND_ORGANIZATION_ASSIGNMENT ( #121, #25, ( #56 ) ) ;
#48 = DIRECTION ( 'NONE',  ( 0.000000000000000000, 0.000000000000000000, 1.000000000000000000 ) ) ;
#49 = FACE_BOUND ( 'NONE', #107, .T. ) ;
#50 = APPROVAL_DATE_TIME ( #5, #262 ) ;
#51 = AXIS2_PLACEMENT_3D ( 'NONE', #299, #230, #200 ) ;
#52 = DATE_AND_TIME ( #285, #171 ) ;
#53 = EDGE_CURVE ( 'NONE', #83, #229, #108, .T. ) ;
#54 = MECHANICAL_CONTEXT ( 'NONE', #238, 'mechanical' ) ;
#55 =( NAMED_UNIT ( * ) SI_UNIT ( $, .STERADIAN. ) SOLID_ANGLE_UNIT ( ) );
#56 = PRODUCT ( 'c734', 'c734', '', ( #54 ) ) ;
#57 = APPROVAL_STATUS ( 'not_yet_approved' ) ;
#58 = ADVANCED_FACE ( 'NONE', ( #86 ), #64, .T. ) ;
#59 = AXIS2_PLACEMENT_3D ( 'NONE', #225, #159, #66 ) ;
#60 = EDGE_LOOP ( 'NONE', ( #289, #176, #271, #181 ) ) ;
#61 = EDGE_LOOP ( 'NONE', ( #152, #153 ) ) ;
#62 = AXIS2_PLACEMENT_3D ( 'NONE', #170, #149, #97 ) ;
#63 = DIRECTION ( 'NONE',  ( -0.000000000000000000, -0.000000000000000000, -1.000000000000000000 ) ) ;
#64 = CYLINDRICAL_SURFACE ( 'NONE', #145, 6.000000000000000888 ) ;
#65 = ORIENTED_EDGE ( 'NONE', *, *, #12, .T. ) ;
#66 = DIRECTION ( 'NONE',  ( -1.000000000000000000, 0.000000000000000000, 0.000000000000000000 ) ) ;
#67 = DIRECTION ( 'NONE',  ( 0.000000000000000000, 0.000000000000000000, 1.000000000000000000 ) ) ;
#68 = AXIS2_PLACEMENT_3D ( 'NONE', #272, #245, #253 ) ;
#69 = CARTESIAN_POINT ( 'NONE',  ( 0.000000000000000000, 0.000000000000000000, 635.0000000000000000 ) ) ;
#70 = DIRECTION ( 'NONE',  ( -0.000000000000000000, -0.000000000000000000, -1.000000000000000000 ) ) ;
#71 = CARTESIAN_POINT ( 'NONE',  ( 3.299999999999999822, 0.000000000000000000, 5.199999999999982414 ) ) ;
#72 = DIRECTION ( 'NONE',  ( 0.000000000000000000, 0.000000000000000000, 1.000000000000000000 ) ) ;
#73 = CALENDAR_DATE ( 2022, 7, 7 ) ;
#74 = ADVANCED_FACE ( 'NONE', ( #14 ), #84, .T. ) ;
#75 = CIRCLE ( 'NONE', #179, 6.000000000000000888 ) ;
#76 = AXIS2_PLACEMENT_3D ( 'NONE', #180, #126, #246 ) ;
#77 = PERSON_AND_ORGANIZATION ( #209, #119 ) ;
#78 = PERSON_AND_ORGANIZATION_ROLE ( 'design_supplier' ) ;
#79 = AXIS2_PLACEMENT_3D ( 'NONE', #306, #22, #42 ) ;
#80 = ORIENTED_EDGE ( 'NONE', *, *, #221, .F. ) ;
#81 = CYLINDRICAL_SURFACE ( 'NONE', #59, 3.100000000000000089 ) ;
#82 = CARTESIAN_POINT ( 'NONE',  ( 0.000000000000000000, 0.000000000000000000, 635.0000000000000000 ) ) ;
#83 = VERTEX_POINT ( 'NONE', #111 ) ;
#84 = CYLINDRICAL_SURFACE ( 'NONE', #29, 3.100000000000000089 ) ;
#85 = APPROVAL_PERSON_ORGANIZATION ( #146, #131, #268 ) ;
#86 = FACE_OUTER_BOUND ( 'NONE', #158, .T. ) ;
#87 = EDGE_CURVE ( 'NONE', #130, #248, #75, .T. ) ;
#88 = ORIENTED_EDGE ( 'NONE', *, *, #205, .T. ) ;
#89 =( LENGTH_UNIT ( ) NAMED_UNIT ( * ) SI_UNIT ( .MILLI., .METRE. ) );
#90 = CIRCLE ( 'NONE', #219, 6.000000000000000888 ) ;
#91 = DIRECTION ( 'NONE',  ( 1.000000000000000000, 0.000000000000000000, 0.000000000000000000 ) ) ;
#92 = DIRECTION ( 'NONE',  ( 1.000000000000000000, 0.000000000000000000, -0.000000000000000000 ) ) ;
#93 = DIRECTION ( 'NONE',  ( 0.000000000000000000, 0.000000000000000000, 1.000000000000000000 ) ) ;
#94 = VECTOR ( 'NONE', #161, 1000.000000000000000 ) ;
#95 = CARTESIAN_POINT ( 'NONE',  ( 3.299999999999999822, 0.000000000000000000, 4.999999999999991118 ) ) ;
#96 = ADVANCED_FACE ( 'NONE', ( #9 ), #177, .T. ) ;
#97 = DIRECTION ( 'NONE',  ( 1.000000000000000000, 0.000000000000000000, 0.000000000000000000 ) ) ;
#98 = APPROVAL_PERSON_ORGANIZATION ( #26, #262, #27 ) ;
#99 = AXIS2_PLACEMENT_3D ( 'NONE', #300, #189, #260 ) ;
#100 = APPROVAL ( #267, 'NEURÈENÝ' ) ;
#101 = COORDINATED_UNIVERSAL_TIME_OFFSET ( 1, 0, .AHEAD. ) ;
#102 = ORIENTED_EDGE ( 'NONE', *, *, #221, .T. ) ;
#103 = COORDINATED_UNIVERSAL_TIME_OFFSET ( 1, 0, .AHEAD. ) ;
#104 = ORIENTED_EDGE ( 'NONE', *, *, #127, .F. ) ;
#105 = CIRCLE ( 'NONE', #4, 0.1999999999999996503 ) ;
#106 = LINE ( 'NONE', #250, #259 ) ;
#107 = EDGE_LOOP ( 'NONE', ( #202, #65 ) ) ;
#108 = LINE ( 'NONE', #183, #94 ) ;
#109 = ORIENTED_EDGE ( 'NONE', *, *, #127, .T. ) ;
#110 = CARTESIAN_POINT ( 'NONE',  ( 0.000000000000000000, 0.000000000000000000, 0.000000000000000000 ) ) ;
#111 = CARTESIAN_POINT ( 'NONE',  ( -3.100000000000000089, 0.000000000000000000, 635.0000000000000000 ) ) ;
#112 = AXIS2_PLACEMENT_3D ( 'NONE', #110, #182, #292 ) ;
#113 = DIRECTION ( 'NONE',  ( -0.000000000000000000, -0.000000000000000000, -1.000000000000000000 ) ) ;
#114 = CIRCLE ( 'NONE', #167, 3.299999999999999822 ) ;
#115 = AXIS2_PLACEMENT_3D ( 'NONE', #45, #67, #92 ) ;
#116 = DIRECTION ( 'NONE',  ( 1.000000000000000000, 0.000000000000000000, 0.000000000000000000 ) ) ;
#117 = DIRECTION ( 'NONE',  ( 1.000000000000000000, 0.000000000000000000, 0.000000000000000000 ) ) ;
#118 = DIRECTION ( 'NONE',  ( -0.000000000000000000, -0.000000000000000000, -1.000000000000000000 ) ) ;
#119 = ORGANIZATION ( 'NEURÈENÝ', 'NEURÈENÝ', '' ) ;
#120 = COORDINATED_UNIVERSAL_TIME_OFFSET ( 1, 0, .AHEAD. ) ;
#121 = PERSON_AND_ORGANIZATION ( #209, #119 ) ;
#122 = CIRCLE ( 'NONE', #185, 6.000000000000000888 ) ;
#123 = VECTOR ( 'NONE', #212, 1000.000000000000000 ) ;
#124 = CALENDAR_DATE ( 2022, 7, 7 ) ;
#125 = APPLICATION_PROTOCOL_DEFINITION ( 'international standard', 'config_control_design', 1994, #238 ) ;
#126 = DIRECTION ( 'NONE',  ( -0.000000000000000000, -0.000000000000000000, -1.000000000000000000 ) ) ;
#127 = EDGE_CURVE ( 'NONE', #197, #130, #106, .T. ) ;
#128 = CIRCLE ( 'NONE', #284, 3.100000000000000089 ) ;
#129 = DIRECTION ( 'NONE',  ( 0.000000000000000000, 0.000000000000000000, 1.000000000000000000 ) ) ;
#130 = VERTEX_POINT ( 'NONE', #208 ) ;
#131 = APPROVAL ( #223, 'NEURÈENÝ' ) ;
#132 = CARTESIAN_POINT ( 'NONE',  ( 0.000000000000000000, 0.000000000000000000, 0.000000000000000000 ) ) ;
#133 = EDGE_LOOP ( 'NONE', ( #35, #160, #38, #102 ) ) ;
#134 = ORIENTED_EDGE ( 'NONE', *, *, #32, .F. ) ;
#135 = DIRECTION ( 'NONE',  ( 0.000000000000000000, 0.000000000000000000, 1.000000000000000000 ) ) ;
#136 = CARTESIAN_POINT ( 'NONE',  ( 0.000000000000000000, 0.000000000000000000, 5.000000000000000000 ) ) ;
#137 = CARTESIAN_POINT ( 'NONE',  ( 3.100000000000000089, 3.796405077356794918E-16, 5.199999999999982414 ) ) ;
#138 = CC_DESIGN_SECURITY_CLASSIFICATION ( #232, ( #20 ) ) ;
#139 = MANIFOLD_SOLID_BREP ( 'Zaoblit1', #2 ) ;
#140 = LOCAL_TIME ( 12, 10, 27.00000000000000000, #120 ) ;
#141 = FACE_OUTER_BOUND ( 'NONE', #204, .T. ) ;
#142 = LINE ( 'NONE', #305, #123 ) ;
#143 = CC_DESIGN_PERSON_AND_ORGANIZATION_ASSIGNMENT ( #286, #148, ( #232 ) ) ;
#144 = DATE_TIME_ROLE ( 'classification_date' ) ;
#145 = AXIS2_PLACEMENT_3D ( 'NONE', #278, #63, #298 ) ;
#146 = PERSON_AND_ORGANIZATION ( #209, #119 ) ;
#147 = PERSON_AND_ORGANIZATION ( #209, #119 ) ;
#148 = PERSON_AND_ORGANIZATION_ROLE ( 'classification_officer' ) ;
#149 = DIRECTION ( 'NONE',  ( 0.000000000000000000, 0.000000000000000000, 1.000000000000000000 ) ) ;
#150 = DIRECTION ( 'NONE',  ( -1.000000000000000000, 0.000000000000000000, 0.000000000000000000 ) ) ;
#151 = ADVANCED_FACE ( 'NONE', ( #7 ), #175, .T. ) ;
#152 = ORIENTED_EDGE ( 'NONE', *, *, #302, .T. ) ;
#153 = ORIENTED_EDGE ( 'NONE', *, *, #290, .T. ) ;
#154 = CIRCLE ( 'NONE', #99, 3.100000000000000089 ) ;
#155 = ORIENTED_EDGE ( 'NONE', *, *, #291, .F. ) ;
#156 = AXIS2_PLACEMENT_3D ( 'NONE', #169, #48, #210 ) ;
#157 = CARTESIAN_POINT ( 'NONE',  ( 3.100000000000000089, 3.796405077356794918E-16, 635.0000000000000000 ) ) ;
#158 = EDGE_LOOP ( 'NONE', ( #104, #6, #13, #226 ) ) ;
#159 = DIRECTION ( 'NONE',  ( -0.000000000000000000, -0.000000000000000000, -1.000000000000000000 ) ) ;
#160 = ORIENTED_EDGE ( 'NONE', *, *, #302, .F. ) ;
#161 = DIRECTION ( 'NONE',  ( -0.000000000000000000, -0.000000000000000000, -1.000000000000000000 ) ) ;
#162 = CARTESIAN_POINT ( 'NONE',  ( -6.000000000000000888, 0.000000000000000000, 0.000000000000000000 ) ) ;
#163 = CC_DESIGN_APPROVAL ( #100, ( #266 ) ) ;
#164 = PLANE ( 'NONE',  #115 ) ;
#165 = DIRECTION ( 'NONE',  ( -0.000000000000000000, -0.000000000000000000, -1.000000000000000000 ) ) ;
#166 = CARTESIAN_POINT ( 'NONE',  ( 6.000000000000000888, 7.347880794884120722E-16, 5.000000000000000000 ) ) ;
#167 = AXIS2_PLACEMENT_3D ( 'NONE', #187, #118, #91 ) ;
#168 = EDGE_CURVE ( 'NONE', #249, #248, #142, .T. ) ;
#169 = CARTESIAN_POINT ( 'NONE',  ( 0.000000000000000000, 0.000000000000000000, 5.199999999999982414 ) ) ;
#170 = CARTESIAN_POINT ( 'NONE',  ( 0.000000000000000000, 0.000000000000000000, 0.000000000000000000 ) ) ;
#171 = LOCAL_TIME ( 12, 10, 27.00000000000000000, #173 ) ;
#172 = DATE_AND_TIME ( #73, #140 ) ;
#173 = COORDINATED_UNIVERSAL_TIME_OFFSET ( 1, 0, .AHEAD. ) ;
#174 = CC_DESIGN_DATE_AND_TIME_ASSIGNMENT ( #263, #144, ( #232 ) ) ;
#175 = CYLINDRICAL_SURFACE ( 'NONE', #264, 6.000000000000000888 ) ;
#176 = ORIENTED_EDGE ( 'NONE', *, *, #237, .T. ) ;
#177 = PLANE ( 'NONE',  #68 ) ;
#178 = ORIENTED_EDGE ( 'NONE', *, *, #269, .F. ) ;
#179 = AXIS2_PLACEMENT_3D ( 'NONE', #132, #224, #277 ) ;
#180 = CARTESIAN_POINT ( 'NONE',  ( 0.000000000000000000, 0.000000000000000000, 5.000000000000000000 ) ) ;
#181 = ORIENTED_EDGE ( 'NONE', *, *, #53, .F. ) ;
#182 = DIRECTION ( 'NONE',  ( 0.000000000000000000, 0.000000000000000000, 1.000000000000000000 ) ) ;
#183 = CARTESIAN_POINT ( 'NONE',  ( -3.100000000000000089, 0.000000000000000000, 635.0000000000000000 ) ) ;
#184 = ADVANCED_FACE ( 'NONE', ( #49, #236 ), #164, .T. ) ;
#185 = AXIS2_PLACEMENT_3D ( 'NONE', #294, #129, #275 ) ;
#186 = CARTESIAN_POINT ( 'NONE',  ( 0.000000000000000000, 0.000000000000000000, 5.199999999999982414 ) ) ;
#187 = CARTESIAN_POINT ( 'NONE',  ( 0.000000000000000000, 0.000000000000000000, 5.000000000000000000 ) ) ;
#188 = DIRECTION ( 'NONE',  ( 1.000000000000000000, 0.000000000000000000, 0.000000000000000000 ) ) ;
#189 = DIRECTION ( 'NONE',  ( 0.000000000000000000, 0.000000000000000000, 1.000000000000000000 ) ) ;
#190 = DIRECTION ( 'NONE',  ( 0.000000000000000000, 0.000000000000000000, -1.000000000000000000 ) ) ;
#191 = APPLICATION_PROTOCOL_DEFINITION ( 'international standard', 'config_control_design', 1994, #39 ) ;
#192 = DATE_AND_TIME ( #265, #274 ) ;
#193 = CC_DESIGN_APPROVAL ( #131, ( #20 ) ) ;
#194 = AXIS2_PLACEMENT_3D ( 'NONE', #69, #17, #117 ) ;
#195 = PERSON_AND_ORGANIZATION_ROLE ( 'creator' ) ;
#196 = COORDINATED_UNIVERSAL_TIME_OFFSET ( 1, 0, .AHEAD. ) ;
#197 = VERTEX_POINT ( 'NONE', #166 ) ;
#198 = EDGE_LOOP ( 'NONE', ( #155, #109, #36, #33 ) ) ;
#199 = LOCAL_TIME ( 12, 10, 27.00000000000000000, #103 ) ;
#200 = DIRECTION ( 'NONE',  ( -1.000000000000000000, 1.224646799147353207E-16, 0.000000000000000000 ) ) ;
#201 = VERTEX_POINT ( 'NONE', #95 ) ;
#202 = ORIENTED_EDGE ( 'NONE', *, *, #215, .T. ) ;
#203 = ORIENTED_EDGE ( 'NONE', *, *, #87, .F. ) ;
#204 = EDGE_LOOP ( 'NONE', ( #134, #203 ) ) ;
#205 = EDGE_CURVE ( 'NONE', #222, #201, #105, .T. ) ;
#206 = ORIENTED_EDGE ( 'NONE', *, *, #18, .F. ) ;
#207 = ORIENTED_EDGE ( 'NONE', *, *, #215, .F. ) ;
#208 = CARTESIAN_POINT ( 'NONE',  ( 6.000000000000000888, 7.347880794884120722E-16, 0.000000000000000000 ) ) ;
#209 = PERSON ( 'NEURÈENÝ', 'NEURÈENÝ', 'NEURÈENÝ', ('NEURÈENÝ'), ('NEURÈENÝ'), ('NEURÈENÝ') ) ;
#210 = DIRECTION ( 'NONE',  ( 1.000000000000000000, 0.000000000000000000, 0.000000000000000000 ) ) ;
#211 = DIRECTION ( 'NONE',  ( -1.000000000000000000, 0.000000000000000000, 0.000000000000000000 ) ) ;
#212 = DIRECTION ( 'NONE',  ( -0.000000000000000000, -0.000000000000000000, -1.000000000000000000 ) ) ;
#213 = CARTESIAN_POINT ( 'NONE',  ( 0.000000000000000000, 0.000000000000000000, 5.199999999999982414 ) ) ;
#214 = TOROIDAL_SURFACE ( 'NONE', #21, 3.299999999999999822, 0.2000000000000000111 ) ;
#215 = EDGE_CURVE ( 'NONE', #201, #15, #114, .T. ) ;
#216 = ADVANCED_FACE ( 'NONE', ( #304 ), #46, .F. ) ;
#217 = APPROVAL_ROLE ( '' ) ;
#218 = SECURITY_CLASSIFICATION_LEVEL ( 'unclassified' ) ;
#219 = AXIS2_PLACEMENT_3D ( 'NONE', #136, #93, #116 ) ;
#220 = PERSON_AND_ORGANIZATION_ROLE ( 'creator' ) ;
#221 = EDGE_CURVE ( 'NONE', #229, #222, #128, .T. ) ;
#222 = VERTEX_POINT ( 'NONE', #137 ) ;
#223 = APPROVAL_STATUS ( 'not_yet_approved' ) ;
#224 = DIRECTION ( 'NONE',  ( 0.000000000000000000, 0.000000000000000000, 1.000000000000000000 ) ) ;
#225 = CARTESIAN_POINT ( 'NONE',  ( 0.000000000000000000, 0.000000000000000000, 635.0000000000000000 ) ) ;
#226 = ORIENTED_EDGE ( 'NONE', *, *, #32, .T. ) ;
#227 = ORIENTED_EDGE ( 'NONE', *, *, #205, .F. ) ;
#228 = EDGE_LOOP ( 'NONE', ( #30, #243 ) ) ;
#229 = VERTEX_POINT ( 'NONE', #281 ) ;
#230 = DIRECTION ( 'NONE',  ( 1.224646799147353207E-16, 1.000000000000000000, -0.000000000000000000 ) ) ;
#231 = FACE_OUTER_BOUND ( 'NONE', #16, .T. ) ;
#232 = SECURITY_CLASSIFICATION ( '', '', #218 ) ;
#233 = CARTESIAN_POINT ( 'NONE',  ( 0.000000000000000000, 0.000000000000000000, 5.000000000000000000 ) ) ;
#234 = ADVANCED_FACE ( 'NONE', ( #231 ), #214, .F. ) ;
#235 = CARTESIAN_POINT ( 'NONE',  ( 3.100000000000000089, 3.796405077356794918E-16, 635.0000000000000000 ) ) ;
#236 = FACE_OUTER_BOUND ( 'NONE', #228, .T. ) ;
#237 = EDGE_CURVE ( 'NONE', #37, #222, #280, .T. ) ;
#238 = APPLICATION_CONTEXT ( 'configuration controlled 3d designs of mechanical parts and assemblies' ) ;
#239 = PERSON_AND_ORGANIZATION ( #209, #119 ) ;
#240 = PRODUCT_DEFINITION_SHAPE ( 'NONE', 'NONE',  #266 ) ;
#241 = CALENDAR_DATE ( 2022, 7, 7 ) ;
#242 = CIRCLE ( 'NONE', #112, 6.000000000000000888 ) ;
#243 = ORIENTED_EDGE ( 'NONE', *, *, #291, .T. ) ;
#244 = PERSON_AND_ORGANIZATION ( #209, #119 ) ;
#245 = DIRECTION ( 'NONE',  ( 0.000000000000000000, 0.000000000000000000, 1.000000000000000000 ) ) ;
#246 = DIRECTION ( 'NONE',  ( 1.000000000000000000, 0.000000000000000000, 0.000000000000000000 ) ) ;
#247 = CC_DESIGN_PERSON_AND_ORGANIZATION_ASSIGNMENT ( #244, #195, ( #266 ) ) ;
#248 = VERTEX_POINT ( 'NONE', #162 ) ;
#249 = VERTEX_POINT ( 'NONE', #255 ) ;
#250 = CARTESIAN_POINT ( 'NONE',  ( 6.000000000000000888, 7.347880794884120722E-16, 5.000000000000000000 ) ) ;
#251 = ORIENTED_EDGE ( 'NONE', *, *, #12, .F. ) ;
#252 = CC_DESIGN_PERSON_AND_ORGANIZATION_ASSIGNMENT ( #77, #78, ( #20 ) ) ;
#253 = DIRECTION ( 'NONE',  ( 1.000000000000000000, 0.000000000000000000, -0.000000000000000000 ) ) ;
#254 = AXIS2_PLACEMENT_3D ( 'NONE', #23, #303, #44 ) ;
#255 = CARTESIAN_POINT ( 'NONE',  ( -6.000000000000000888, 0.000000000000000000, 5.000000000000000000 ) ) ;
#256 = PLANE ( 'NONE',  #79 ) ;
#257 = ADVANCED_FACE ( 'NONE', ( #141 ), #256, .F. ) ;
#258 = DIRECTION ( 'NONE',  ( 1.000000000000000000, 0.000000000000000000, 0.000000000000000000 ) ) ;
#259 = VECTOR ( 'NONE', #113, 1000.000000000000000 ) ;
#260 = DIRECTION ( 'NONE',  ( 1.000000000000000000, 0.000000000000000000, 0.000000000000000000 ) ) ;
#261 = DATE_TIME_ROLE ( 'creation_date' ) ;
#262 = APPROVAL ( #57, 'NEURÈENÝ' ) ;
#263 = DATE_AND_TIME ( #241, #279 ) ;
#264 = AXIS2_PLACEMENT_3D ( 'NONE', #233, #165, #211 ) ;
#265 = CALENDAR_DATE ( 2022, 7, 7 ) ;
#266 = PRODUCT_DEFINITION ( 'NEZNÁMÝ', '', #20, #293 ) ;
#267 = APPROVAL_STATUS ( 'not_yet_approved' ) ;
#268 = APPROVAL_ROLE ( '' ) ;
#269 = EDGE_CURVE ( 'NONE', #222, #229, #41, .T. ) ;
#270 = ORIENTED_EDGE ( 'NONE', *, *, #18, .T. ) ;
#271 = ORIENTED_EDGE ( 'NONE', *, *, #269, .T. ) ;
#272 = CARTESIAN_POINT ( 'NONE',  ( 0.000000000000000000, 0.000000000000000000, 635.0000000000000000 ) ) ;
#273 = CC_DESIGN_APPROVAL ( #262, ( #232 ) ) ;
#274 = LOCAL_TIME ( 12, 10, 27.00000000000000000, #101 ) ;
#275 = DIRECTION ( 'NONE',  ( 1.000000000000000000, 0.000000000000000000, 0.000000000000000000 ) ) ;
#276 = CC_DESIGN_PERSON_AND_ORGANIZATION_ASSIGNMENT ( #239, #220, ( #20 ) ) ;
#277 = DIRECTION ( 'NONE',  ( 1.000000000000000000, 0.000000000000000000, 0.000000000000000000 ) ) ;
#278 = CARTESIAN_POINT ( 'NONE',  ( 0.000000000000000000, 0.000000000000000000, 5.000000000000000000 ) ) ;
#279 = LOCAL_TIME ( 12, 10, 27.00000000000000000, #196 ) ;
#280 = LINE ( 'NONE', #235, #288 ) ;
#281 = CARTESIAN_POINT ( 'NONE',  ( -3.100000000000000089, 0.000000000000000000, 5.199999999999982414 ) ) ;
#282 = DIRECTION ( 'NONE',  ( 0.000000000000000000, -1.000000000000000000, 0.000000000000000000 ) ) ;
#283 = PRODUCT_RELATED_PRODUCT_CATEGORY ( 'detail', '', ( #56 ) ) ;
#284 = AXIS2_PLACEMENT_3D ( 'NONE', #186, #135, #188 ) ;
#285 = CALENDAR_DATE ( 2022, 7, 7 ) ;
#286 = PERSON_AND_ORGANIZATION ( #209, #119 ) ;
#287 = ADVANCED_BREP_SHAPE_REPRESENTATION ( 'c734', ( #139, #62 ), #297 ) ;
#288 = VECTOR ( 'NONE', #70, 1000.000000000000000 ) ;
#289 = ORIENTED_EDGE ( 'NONE', *, *, #290, .F. ) ;
#290 = EDGE_CURVE ( 'NONE', #37, #83, #301, .T. ) ;
#291 = EDGE_CURVE ( 'NONE', #197, #249, #90, .T. ) ;
#292 = DIRECTION ( 'NONE',  ( 1.000000000000000000, 0.000000000000000000, 0.000000000000000000 ) ) ;
#293 = DESIGN_CONTEXT ( 'detailed design', #39, 'design' ) ;
#294 = CARTESIAN_POINT ( 'NONE',  ( 0.000000000000000000, 0.000000000000000000, 5.000000000000000000 ) ) ;
#295 = FACE_OUTER_BOUND ( 'NONE', #133, .T. ) ;
#296 = CC_DESIGN_DATE_AND_TIME_ASSIGNMENT ( #52, #261, ( #266 ) ) ;
#297 =( GEOMETRIC_REPRESENTATION_CONTEXT ( 3 ) GLOBAL_UNCERTAINTY_ASSIGNED_CONTEXT ( ( #10 ) ) GLOBAL_UNIT_ASSIGNED_CONTEXT ( ( #89, #19, #55 ) ) REPRESENTATION_CONTEXT ( 'NONE', 'WORKASPACE' ) );
#298 = DIRECTION ( 'NONE',  ( -1.000000000000000000, 0.000000000000000000, 0.000000000000000000 ) ) ;
#299 = CARTESIAN_POINT ( 'NONE',  ( -3.299999999999999822, 4.041334437186265510E-16, 5.199999999999982414 ) ) ;
#300 = CARTESIAN_POINT ( 'NONE',  ( 0.000000000000000000, 0.000000000000000000, 635.0000000000000000 ) ) ;
#301 = CIRCLE ( 'NONE', #194, 3.100000000000000089 ) ;
#302 = EDGE_CURVE ( 'NONE', #83, #37, #154, .T. ) ;
#303 = DIRECTION ( 'NONE',  ( 0.000000000000000000, 0.000000000000000000, 1.000000000000000000 ) ) ;
#304 = FACE_OUTER_BOUND ( 'NONE', #11, .T. ) ;
#305 = CARTESIAN_POINT ( 'NONE',  ( -6.000000000000000888, 0.000000000000000000, 5.000000000000000000 ) ) ;
#306 = CARTESIAN_POINT ( 'NONE',  ( 0.000000000000000000, 0.000000000000000000, 0.000000000000000000 ) ) ;
#307 = APPROVAL_DATE_TIME ( #192, #100 ) ;
ENDSEC;
END-ISO-10303-21;
