ISO-10303-21;
HEADER;
FILE_DESCRIPTION (( 'STEP AP203' ),
    '1' );
FILE_NAME ('9501.STEP',
    '2022-07-07T09:54:20',
    ( '' ),
    ( '' ),
    'SwSTEP 2.0',
    'SolidWorks 2019',
    '' );
FILE_SCHEMA (( 'CONFIG_CONTROL_DESIGN' ));
ENDSEC;

DATA;
#1 = APPROVAL ( #291, 'NEURÈENÝ' ) ;
#2 = CIRCLE ( 'NONE', #68, 5.200000000000001066 ) ;
#3 = ORIENTED_EDGE ( 'NONE', *, *, #114, .T. ) ;
#4 = EDGE_LOOP ( 'NONE', ( #240, #286 ) ) ;
#5 = ORIENTED_EDGE ( 'NONE', *, *, #297, .T. ) ;
#6 = CARTESIAN_POINT ( 'NONE',  ( 0.000000000000000000, 0.000000000000000000, 5.000000000000000000 ) ) ;
#7 = FACE_OUTER_BOUND ( 'NONE', #172, .T. ) ;
#8 = ORIENTED_EDGE ( 'NONE', *, *, #126, .F. ) ;
#9 = CARTESIAN_POINT ( 'NONE',  ( -8.000000000000000000, 0.000000000000000000, 5.000000000000000000 ) ) ;
#10 = EDGE_LOOP ( 'NONE', ( #8, #144, #11, #239 ) ) ;
#11 = ORIENTED_EDGE ( 'NONE', *, *, #27, .T. ) ;
#12 = APPROVAL_ROLE ( '' ) ;
#13 = DIRECTION ( 'NONE',  ( -1.000000000000000000, 0.000000000000000000, 0.000000000000000000 ) ) ;
#14 = DATE_AND_TIME ( #34, #185 ) ;
#15 = DIRECTION ( 'NONE',  ( -0.000000000000000000, -0.000000000000000000, -1.000000000000000000 ) ) ;
#16 = PERSON_AND_ORGANIZATION ( #97, #300 ) ;
#17 = CC_DESIGN_APPROVAL ( #1, ( #163 ) ) ;
#18 = DIRECTION ( 'NONE',  ( 0.000000000000000000, 0.000000000000000000, 1.000000000000000000 ) ) ;
#19 = DIRECTION ( 'NONE',  ( 0.000000000000000000, 0.000000000000000000, 1.000000000000000000 ) ) ;
#20 = CC_DESIGN_PERSON_AND_ORGANIZATION_ASSIGNMENT ( #57, #152, ( #163 ) ) ;
#21 = AXIS2_PLACEMENT_3D ( 'NONE', #29, #123, #76 ) ;
#22 = SECURITY_CLASSIFICATION ( '', '', #132 ) ;
#23 = EDGE_CURVE ( 'NONE', #188, #95, #83, .T. ) ;
#24 = DIRECTION ( 'NONE',  ( 0.000000000000000000, 0.000000000000000000, 1.000000000000000000 ) ) ;
#25 = CIRCLE ( 'NONE', #61, 5.200000000000001066 ) ;
#26 = DIRECTION ( 'NONE',  ( 1.000000000000000000, 0.000000000000000000, 0.000000000000000000 ) ) ;
#27 = EDGE_CURVE ( 'NONE', #151, #258, #124, .T. ) ;
#28 = DIRECTION ( 'NONE',  ( -0.000000000000000000, -0.000000000000000000, -1.000000000000000000 ) ) ;
#29 = CARTESIAN_POINT ( 'NONE',  ( 0.000000000000000000, 0.000000000000000000, 0.000000000000000000 ) ) ;
#30 = COORDINATED_UNIVERSAL_TIME_OFFSET ( 1, 0, .AHEAD. ) ;
#31 = PLANE ( 'NONE',  #216 ) ;
#32 = VERTEX_POINT ( 'NONE', #257 ) ;
#33 = EDGE_LOOP ( 'NONE', ( #55, #244 ) ) ;
#34 = CALENDAR_DATE ( 2022, 7, 7 ) ;
#35 = CYLINDRICAL_SURFACE ( 'NONE', #141, 5.000000000000000888 ) ;
#36 = DIRECTION ( 'NONE',  ( 1.000000000000000000, 0.000000000000000000, 0.000000000000000000 ) ) ;
#37 = ADVANCED_FACE ( 'NONE', ( #45 ), #167, .F. ) ;
#38 = DATE_TIME_ROLE ( 'classification_date' ) ;
#39 = CYLINDRICAL_SURFACE ( 'NONE', #184, 5.000000000000000888 ) ;
#40 = AXIS2_PLACEMENT_3D ( 'NONE', #232, #19, #91 ) ;
#41 = EDGE_CURVE ( 'NONE', #104, #290, #243, .T. ) ;
#42 = CALENDAR_DATE ( 2022, 7, 7 ) ;
#43 = VECTOR ( 'NONE', #273, 1000.000000000000000 ) ;
#44 = AXIS2_PLACEMENT_3D ( 'NONE', #107, #99, #247 ) ;
#45 = FACE_OUTER_BOUND ( 'NONE', #98, .T. ) ;
#46 = ORIENTED_EDGE ( 'NONE', *, *, #229, .F. ) ;
#47 = ADVANCED_FACE ( 'NONE', ( #121 ), #53, .F. ) ;
#48 = DIRECTION ( 'NONE',  ( 1.000000000000000000, 0.000000000000000000, 0.000000000000000000 ) ) ;
#49 = ORIENTED_EDGE ( 'NONE', *, *, #89, .T. ) ;
#50 = APPROVAL_PERSON_ORGANIZATION ( #294, #1, #274 ) ;
#51 = FACE_OUTER_BOUND ( 'NONE', #214, .T. ) ;
#52 = CIRCLE ( 'NONE', #210, 0.1999999999999996503 ) ;
#53 = PLANE ( 'NONE',  #21 ) ;
#54 = DIRECTION ( 'NONE',  ( 1.224646799147353207E-16, 1.000000000000000000, -0.000000000000000000 ) ) ;
#55 = ORIENTED_EDGE ( 'NONE', *, *, #81, .F. ) ;
#56 = VERTEX_POINT ( 'NONE', #217 ) ;
#57 = PERSON_AND_ORGANIZATION ( #97, #300 ) ;
#58 = DIRECTION ( 'NONE',  ( 0.000000000000000000, 0.000000000000000000, 1.000000000000000000 ) ) ;
#59 = CARTESIAN_POINT ( 'NONE',  ( 0.000000000000000000, 0.000000000000000000, 5.000000000000000000 ) ) ;
#60 = APPROVAL ( #204, 'NEURÈENÝ' ) ;
#61 = AXIS2_PLACEMENT_3D ( 'NONE', #122, #219, #36 ) ;
#62 = PERSON_AND_ORGANIZATION ( #97, #300 ) ;
#63 = CARTESIAN_POINT ( 'NONE',  ( 0.000000000000000000, 0.000000000000000000, 5.000000000000000000 ) ) ;
#64 = AXIS2_PLACEMENT_3D ( 'NONE', #220, #103, #127 ) ;
#65 = CC_DESIGN_SECURITY_CLASSIFICATION ( #22, ( #163 ) ) ;
#66 = DIRECTION ( 'NONE',  ( -1.000000000000000000, 0.000000000000000000, 0.000000000000000000 ) ) ;
#67 = ADVANCED_FACE ( 'NONE', ( #7 ), #191, .F. ) ;
#68 = AXIS2_PLACEMENT_3D ( 'NONE', #63, #178, #136 ) ;
#69 = ADVANCED_FACE ( 'NONE', ( #289 ), #35, .T. ) ;
#70 = CC_DESIGN_APPROVAL ( #60, ( #282 ) ) ;
#71 = ORIENTED_EDGE ( 'NONE', *, *, #181, .F. ) ;
#72 = CARTESIAN_POINT ( 'NONE',  ( 0.000000000000000000, 0.000000000000000000, 5.199999999999982414 ) ) ;
#73 = CARTESIAN_POINT ( 'NONE',  ( -5.000000000000000888, 0.000000000000000000, 405.0000000000000000 ) ) ;
#74 = ORIENTED_EDGE ( 'NONE', *, *, #23, .F. ) ;
#75 = CARTESIAN_POINT ( 'NONE',  ( -8.000000000000000000, 0.000000000000000000, 5.000000000000000000 ) ) ;
#76 = DIRECTION ( 'NONE',  ( 1.000000000000000000, 0.000000000000000000, -0.000000000000000000 ) ) ;
#77 = PERSON_AND_ORGANIZATION ( #97, #300 ) ;
#78 = CARTESIAN_POINT ( 'NONE',  ( -5.200000000000001066, 6.368163355566237368E-16, 5.199999999999982414 ) ) ;
#79 = EDGE_LOOP ( 'NONE', ( #284, #71, #245, #145 ) ) ;
#80 = PERSON_AND_ORGANIZATION_ROLE ( 'classification_officer' ) ;
#81 = EDGE_CURVE ( 'NONE', #258, #151, #276, .T. ) ;
#82 = DIRECTION ( 'NONE',  ( 0.000000000000000000, 0.000000000000000000, 1.000000000000000000 ) ) ;
#83 = CIRCLE ( 'NONE', #252, 5.000000000000000888 ) ;
#84 = COORDINATED_UNIVERSAL_TIME_OFFSET ( 1, 0, .AHEAD. ) ;
#85 = DIRECTION ( 'NONE',  ( -1.000000000000000000, 1.224646799147353454E-16, 0.000000000000000000 ) ) ;
#86 = AXIS2_PLACEMENT_3D ( 'NONE', #268, #58, #148 ) ;
#87 = CALENDAR_DATE ( 2022, 7, 7 ) ;
#88 = CARTESIAN_POINT ( 'NONE',  ( 5.200000000000001066, 0.000000000000000000, 4.999999999999991118 ) ) ;
#89 = EDGE_CURVE ( 'NONE', #104, #258, #96, .T. ) ;
#90 = COORDINATED_UNIVERSAL_TIME_OFFSET ( 1, 0, .AHEAD. ) ;
#91 = DIRECTION ( 'NONE',  ( 1.000000000000000000, 0.000000000000000000, 0.000000000000000000 ) ) ;
#92 = PERSON_AND_ORGANIZATION ( #97, #300 ) ;
#93 = CLOSED_SHELL ( 'NONE', ( #37, #267, #206, #224, #183, #47, #69, #110, #67 ) ) ;
#94 = ORIENTED_EDGE ( 'NONE', *, *, #181, .T. ) ;
#95 = VERTEX_POINT ( 'NONE', #226 ) ;
#96 = LINE ( 'NONE', #9, #269 ) ;
#97 = PERSON ( 'NEURÈENÝ', 'NEURÈENÝ', 'NEURÈENÝ', ('NEURÈENÝ'), ('NEURÈENÝ'), ('NEURÈENÝ') ) ;
#98 = EDGE_LOOP ( 'NONE', ( #260, #3, #221, #198 ) ) ;
#99 = DIRECTION ( 'NONE',  ( 0.000000000000000000, 0.000000000000000000, 1.000000000000000000 ) ) ;
#100 = APPROVAL_DATE_TIME ( #250, #1 ) ;
#101 = CARTESIAN_POINT ( 'NONE',  ( 0.000000000000000000, 0.000000000000000000, 405.0000000000000000 ) ) ;
#102 = CIRCLE ( 'NONE', #40, 5.000000000000000888 ) ;
#103 = DIRECTION ( 'NONE',  ( 0.000000000000000000, 0.000000000000000000, 1.000000000000000000 ) ) ;
#104 = VERTEX_POINT ( 'NONE', #75 ) ;
#105 = APPROVAL_DATE_TIME ( #14, #190 ) ;
#106 = LINE ( 'NONE', #242, #140 ) ;
#107 = CARTESIAN_POINT ( 'NONE',  ( 0.000000000000000000, 0.000000000000000000, 0.000000000000000000 ) ) ;
#108 = APPROVAL_ROLE ( '' ) ;
#109 = DATE_AND_TIME ( #129, #236 ) ;
#110 = ADVANCED_FACE ( 'NONE', ( #264 ), #31, .T. ) ;
#111 = CARTESIAN_POINT ( 'NONE',  ( 8.000000000000000000, 9.797174393178825657E-16, 5.000000000000000000 ) ) ;
#112 = PRODUCT ( '9501', '9501', '', ( #133 ) ) ;
#113 = CARTESIAN_POINT ( 'NONE',  ( 5.200000000000001066, 0.000000000000000000, 5.199999999999982414 ) ) ;
#114 = EDGE_CURVE ( 'NONE', #95, #56, #301, .T. ) ;
#115 = CIRCLE ( 'NONE', #156, 5.000000000000000888 ) ;
#116 = AXIS2_PLACEMENT_3D ( 'NONE', #187, #259, #48 ) ;
#117 = LOCAL_TIME ( 11, 54, 20.00000000000000000, #90 ) ;
#118 = AXIS2_PLACEMENT_3D ( 'NONE', #295, #176, #249 ) ;
#119 = ORIENTED_EDGE ( 'NONE', *, *, #23, .T. ) ;
#120 = APPROVAL_PERSON_ORGANIZATION ( #92, #60, #108 ) ;
#121 = FACE_OUTER_BOUND ( 'NONE', #33, .T. ) ;
#122 = CARTESIAN_POINT ( 'NONE',  ( 0.000000000000000000, 0.000000000000000000, 5.000000000000000000 ) ) ;
#123 = DIRECTION ( 'NONE',  ( 0.000000000000000000, 0.000000000000000000, 1.000000000000000000 ) ) ;
#124 = CIRCLE ( 'NONE', #305, 8.000000000000000000 ) ;
#125 = DIRECTION ( 'NONE',  ( 0.000000000000000000, 0.000000000000000000, 1.000000000000000000 ) ) ;
#126 = EDGE_CURVE ( 'NONE', #290, #104, #186, .T. ) ;
#127 = DIRECTION ( 'NONE',  ( 1.000000000000000000, 0.000000000000000000, 0.000000000000000000 ) ) ;
#128 = ORIENTED_EDGE ( 'NONE', *, *, #139, .T. ) ;
#129 = CALENDAR_DATE ( 2022, 7, 7 ) ;
#130 = FACE_OUTER_BOUND ( 'NONE', #10, .T. ) ;
#131 = CARTESIAN_POINT ( 'NONE',  ( 0.000000000000000000, 0.000000000000000000, 5.000000000000000000 ) ) ;
#132 = SECURITY_CLASSIFICATION_LEVEL ( 'unclassified' ) ;
#133 = MECHANICAL_CONTEXT ( 'NONE', #212, 'mechanical' ) ;
#134 = AXIS2_PLACEMENT_3D ( 'NONE', #230, #18, #162 ) ;
#135 = CIRCLE ( 'NONE', #86, 5.000000000000000888 ) ;
#136 = DIRECTION ( 'NONE',  ( 1.000000000000000000, 0.000000000000000000, 0.000000000000000000 ) ) ;
#137 = APPLICATION_CONTEXT ( 'configuration controlled 3d designs of mechanical parts and assemblies' ) ;
#138 = DESIGN_CONTEXT ( 'detailed design', #137, 'design' ) ;
#139 = EDGE_CURVE ( 'NONE', #56, #293, #25, .T. ) ;
#140 = VECTOR ( 'NONE', #28, 1000.000000000000000 ) ;
#141 = AXIS2_PLACEMENT_3D ( 'NONE', #101, #15, #292 ) ;
#142 = MANIFOLD_SOLID_BREP ( 'Zaoblit1', #93 ) ;
#143 = LOCAL_TIME ( 11, 54, 20.00000000000000000, #225 ) ;
#144 = ORIENTED_EDGE ( 'NONE', *, *, #229, .T. ) ;
#145 = ORIENTED_EDGE ( 'NONE', *, *, #161, .T. ) ;
#146 = ORIENTED_EDGE ( 'NONE', *, *, #41, .F. ) ;
#147 = ORIENTED_EDGE ( 'NONE', *, *, #280, .T. ) ;
#148 = DIRECTION ( 'NONE',  ( 1.000000000000000000, 0.000000000000000000, 0.000000000000000000 ) ) ;
#149 = CARTESIAN_POINT ( 'NONE',  ( 0.000000000000000000, 0.000000000000000000, 0.000000000000000000 ) ) ;
#150 = FACE_BOUND ( 'NONE', #175, .T. ) ;
#151 = VERTEX_POINT ( 'NONE', #272 ) ;
#152 = PERSON_AND_ORGANIZATION_ROLE ( 'creator' ) ;
#153 = CARTESIAN_POINT ( 'NONE',  ( 5.000000000000000888, 6.123233995736767268E-16, 5.199999999999982414 ) ) ;
#154 = AXIS2_PLACEMENT_3D ( 'NONE', #78, #54, #85 ) ;
#155 = DIRECTION ( 'NONE',  ( 1.000000000000000000, 0.000000000000000000, -0.000000000000000000 ) ) ;
#156 = AXIS2_PLACEMENT_3D ( 'NONE', #189, #82, #174 ) ;
#157 = PERSON_AND_ORGANIZATION_ROLE ( 'creator' ) ;
#158 = DIRECTION ( 'NONE',  ( 0.000000000000000000, 0.000000000000000000, -1.000000000000000000 ) ) ;
#159 = APPLICATION_PROTOCOL_DEFINITION ( 'international standard', 'config_control_design', 1994, #212 ) ;
#160 = AXIS2_PLACEMENT_3D ( 'NONE', #59, #223, #261 ) ;
#161 = EDGE_CURVE ( 'NONE', #95, #188, #115, .T. ) ;
#162 = DIRECTION ( 'NONE',  ( 1.000000000000000000, 0.000000000000000000, 0.000000000000000000 ) ) ;
#163 = PRODUCT_DEFINITION_FORMATION_WITH_SPECIFIED_SOURCE ( 'LIBOVOLNÝ', '', #112, .NOT_KNOWN. ) ;
#164 = CC_DESIGN_PERSON_AND_ORGANIZATION_ASSIGNMENT ( #16, #207, ( #112 ) ) ;
#165 = DIRECTION ( 'NONE',  ( 1.000000000000000000, 0.000000000000000000, 0.000000000000000000 ) ) ;
#166 = DIRECTION ( 'NONE',  ( 1.000000000000000000, 0.000000000000000000, 0.000000000000000000 ) ) ;
#167 = TOROIDAL_SURFACE ( 'NONE', #209, 5.200000000000001066, 0.2000000000000000111 ) ;
#168 = CYLINDRICAL_SURFACE ( 'NONE', #160, 8.000000000000000000 ) ;
#169 = CC_DESIGN_PERSON_AND_ORGANIZATION_ASSIGNMENT ( #62, #80, ( #22 ) ) ;
#170 = DIRECTION ( 'NONE',  ( 0.000000000000000000, 0.000000000000000000, 1.000000000000000000 ) ) ;
#171 = FACE_OUTER_BOUND ( 'NONE', #4, .T. ) ;
#172 = EDGE_LOOP ( 'NONE', ( #281, #74, #5, #213 ) ) ;
#173 = COORDINATED_UNIVERSAL_TIME_OFFSET ( 1, 0, .AHEAD. ) ;
#174 = DIRECTION ( 'NONE',  ( 1.000000000000000000, 0.000000000000000000, 0.000000000000000000 ) ) ;
#175 = EDGE_LOOP ( 'NONE', ( #192, #128 ) ) ;
#176 = DIRECTION ( 'NONE',  ( 0.000000000000000000, 0.000000000000000000, 1.000000000000000000 ) ) ;
#177 =( LENGTH_UNIT ( ) NAMED_UNIT ( * ) SI_UNIT ( .MILLI., .METRE. ) );
#178 = DIRECTION ( 'NONE',  ( -0.000000000000000000, -0.000000000000000000, -1.000000000000000000 ) ) ;
#179 = UNCERTAINTY_MEASURE_WITH_UNIT (LENGTH_MEASURE( 1.000000000000000082E-05 ), #177, 'distance_accuracy_value', 'NONE');
#180 = DATE_AND_TIME ( #42, #117 ) ;
#181 = EDGE_CURVE ( 'NONE', #197, #32, #135, .T. ) ;
#182 =( NAMED_UNIT ( * ) PLANE_ANGLE_UNIT ( ) SI_UNIT ( $, .RADIAN. ) );
#183 = ADVANCED_FACE ( 'NONE', ( #150, #171 ), #285, .T. ) ;
#184 = AXIS2_PLACEMENT_3D ( 'NONE', #253, #304, #66 ) ;
#185 = LOCAL_TIME ( 11, 54, 20.00000000000000000, #84 ) ;
#186 = CIRCLE ( 'NONE', #118, 8.000000000000000000 ) ;
#187 = CARTESIAN_POINT ( 'NONE',  ( 0.000000000000000000, 0.000000000000000000, 5.000000000000000000 ) ) ;
#188 = VERTEX_POINT ( 'NONE', #153 ) ;
#189 = CARTESIAN_POINT ( 'NONE',  ( 0.000000000000000000, 0.000000000000000000, 5.199999999999982414 ) ) ;
#190 = APPROVAL ( #246, 'NEURÈENÝ' ) ;
#191 = TOROIDAL_SURFACE ( 'NONE', #64, 5.200000000000001066, 0.2000000000000000111 ) ;
#192 = ORIENTED_EDGE ( 'NONE', *, *, #279, .T. ) ;
#193 = CYLINDRICAL_SURFACE ( 'NONE', #195, 8.000000000000000000 ) ;
#194 = ORIENTED_EDGE ( 'NONE', *, *, #303, .T. ) ;
#195 = AXIS2_PLACEMENT_3D ( 'NONE', #6, #241, #13 ) ;
#196 = DIRECTION ( 'NONE',  ( 0.000000000000000000, 0.000000000000000000, 1.000000000000000000 ) ) ;
#197 = VERTEX_POINT ( 'NONE', #73 ) ;
#198 = ORIENTED_EDGE ( 'NONE', *, *, #297, .F. ) ;
#199 = DIRECTION ( 'NONE',  ( 1.000000000000000000, 0.000000000000000000, -0.000000000000000000 ) ) ;
#200 = DIRECTION ( 'NONE',  ( -0.000000000000000000, -0.000000000000000000, -1.000000000000000000 ) ) ;
#201 = PERSON_AND_ORGANIZATION ( #97, #300 ) ;
#202 = PRODUCT_DEFINITION_SHAPE ( 'NONE', 'NONE',  #282 ) ;
#203 = SHAPE_DEFINITION_REPRESENTATION ( #202, #238 ) ;
#204 = APPROVAL_STATUS ( 'not_yet_approved' ) ;
#205 = APPLICATION_PROTOCOL_DEFINITION ( 'international standard', 'config_control_design', 1994, #137 ) ;
#206 = ADVANCED_FACE ( 'NONE', ( #130 ), #168, .T. ) ;
#207 = PERSON_AND_ORGANIZATION_ROLE ( 'design_owner' ) ;
#208 = LOCAL_TIME ( 11, 54, 20.00000000000000000, #30 ) ;
#209 = AXIS2_PLACEMENT_3D ( 'NONE', #283, #263, #166 ) ;
#210 = AXIS2_PLACEMENT_3D ( 'NONE', #113, #277, #158 ) ;
#211 = EDGE_LOOP ( 'NONE', ( #218, #194, #119, #237 ) ) ;
#212 = APPLICATION_CONTEXT ( 'configuration controlled 3d designs of mechanical parts and assemblies' ) ;
#213 = ORIENTED_EDGE ( 'NONE', *, *, #139, .F. ) ;
#214 = EDGE_LOOP ( 'NONE', ( #46, #146, #49, #270 ) ) ;
#215 = LINE ( 'NONE', #287, #43 ) ;
#216 = AXIS2_PLACEMENT_3D ( 'NONE', #298, #125, #199 ) ;
#217 = CARTESIAN_POINT ( 'NONE',  ( -5.200000000000001066, 6.368163355566237368E-16, 4.999999999999991118 ) ) ;
#218 = ORIENTED_EDGE ( 'NONE', *, *, #280, .F. ) ;
#219 = DIRECTION ( 'NONE',  ( -0.000000000000000000, -0.000000000000000000, -1.000000000000000000 ) ) ;
#220 = CARTESIAN_POINT ( 'NONE',  ( 0.000000000000000000, 0.000000000000000000, 5.199999999999982414 ) ) ;
#221 = ORIENTED_EDGE ( 'NONE', *, *, #279, .F. ) ;
#222 = PERSON_AND_ORGANIZATION ( #97, #300 ) ;
#223 = DIRECTION ( 'NONE',  ( -0.000000000000000000, -0.000000000000000000, -1.000000000000000000 ) ) ;
#224 = ADVANCED_FACE ( 'NONE', ( #51 ), #193, .T. ) ;
#225 = COORDINATED_UNIVERSAL_TIME_OFFSET ( 1, 0, .AHEAD. ) ;
#226 = CARTESIAN_POINT ( 'NONE',  ( -5.000000000000000888, 0.000000000000000000, 5.199999999999982414 ) ) ;
#227 = DATE_AND_TIME ( #87, #208 ) ;
#228 = APPROVAL_PERSON_ORGANIZATION ( #222, #190, #12 ) ;
#229 = EDGE_CURVE ( 'NONE', #290, #151, #106, .T. ) ;
#230 = CARTESIAN_POINT ( 'NONE',  ( 0.000000000000000000, 0.000000000000000000, 0.000000000000000000 ) ) ;
#231 = VECTOR ( 'NONE', #233, 1000.000000000000000 ) ;
#232 = CARTESIAN_POINT ( 'NONE',  ( 0.000000000000000000, 0.000000000000000000, 405.0000000000000000 ) ) ;
#233 = DIRECTION ( 'NONE',  ( -0.000000000000000000, -0.000000000000000000, -1.000000000000000000 ) ) ;
#234 = AXIS2_PLACEMENT_3D ( 'NONE', #131, #196, #155 ) ;
#235 = PRODUCT_RELATED_PRODUCT_CATEGORY ( 'detail', '', ( #112 ) ) ;
#236 = LOCAL_TIME ( 11, 54, 20.00000000000000000, #173 ) ;
#237 = ORIENTED_EDGE ( 'NONE', *, *, #248, .F. ) ;
#238 = ADVANCED_BREP_SHAPE_REPRESENTATION ( '9501', ( #142, #134 ), #307 ) ;
#239 = ORIENTED_EDGE ( 'NONE', *, *, #89, .F. ) ;
#240 = ORIENTED_EDGE ( 'NONE', *, *, #41, .T. ) ;
#241 = DIRECTION ( 'NONE',  ( -0.000000000000000000, -0.000000000000000000, -1.000000000000000000 ) ) ;
#242 = CARTESIAN_POINT ( 'NONE',  ( 8.000000000000000000, 9.797174393178825657E-16, 5.000000000000000000 ) ) ;
#243 = CIRCLE ( 'NONE', #116, 8.000000000000000000 ) ;
#244 = ORIENTED_EDGE ( 'NONE', *, *, #27, .F. ) ;
#245 = ORIENTED_EDGE ( 'NONE', *, *, #248, .T. ) ;
#246 = APPROVAL_STATUS ( 'not_yet_approved' ) ;
#247 = DIRECTION ( 'NONE',  ( 1.000000000000000000, 0.000000000000000000, 0.000000000000000000 ) ) ;
#248 = EDGE_CURVE ( 'NONE', #197, #95, #215, .T. ) ;
#249 = DIRECTION ( 'NONE',  ( 1.000000000000000000, 0.000000000000000000, 0.000000000000000000 ) ) ;
#250 = DATE_AND_TIME ( #266, #143 ) ;
#251 = CC_DESIGN_PERSON_AND_ORGANIZATION_ASSIGNMENT ( #77, #271, ( #163 ) ) ;
#252 = AXIS2_PLACEMENT_3D ( 'NONE', #72, #170, #165 ) ;
#253 = CARTESIAN_POINT ( 'NONE',  ( 0.000000000000000000, 0.000000000000000000, 405.0000000000000000 ) ) ;
#254 = APPROVAL_DATE_TIME ( #180, #60 ) ;
#255 =( NAMED_UNIT ( * ) SI_UNIT ( $, .STERADIAN. ) SOLID_ANGLE_UNIT ( ) );
#256 = CC_DESIGN_DATE_AND_TIME_ASSIGNMENT ( #227, #38, ( #22 ) ) ;
#257 = CARTESIAN_POINT ( 'NONE',  ( 5.000000000000000888, 6.123233995736767268E-16, 405.0000000000000000 ) ) ;
#258 = VERTEX_POINT ( 'NONE', #275 ) ;
#259 = DIRECTION ( 'NONE',  ( 0.000000000000000000, 0.000000000000000000, 1.000000000000000000 ) ) ;
#260 = ORIENTED_EDGE ( 'NONE', *, *, #161, .F. ) ;
#261 = DIRECTION ( 'NONE',  ( -1.000000000000000000, 0.000000000000000000, 0.000000000000000000 ) ) ;
#262 = CC_DESIGN_APPROVAL ( #190, ( #22 ) ) ;
#263 = DIRECTION ( 'NONE',  ( 0.000000000000000000, 0.000000000000000000, 1.000000000000000000 ) ) ;
#264 = FACE_OUTER_BOUND ( 'NONE', #265, .T. ) ;
#265 = EDGE_LOOP ( 'NONE', ( #94, #147 ) ) ;
#266 = CALENDAR_DATE ( 2022, 7, 7 ) ;
#267 = ADVANCED_FACE ( 'NONE', ( #278 ), #39, .T. ) ;
#268 = CARTESIAN_POINT ( 'NONE',  ( 0.000000000000000000, 0.000000000000000000, 405.0000000000000000 ) ) ;
#269 = VECTOR ( 'NONE', #200, 1000.000000000000000 ) ;
#270 = ORIENTED_EDGE ( 'NONE', *, *, #81, .T. ) ;
#271 = PERSON_AND_ORGANIZATION_ROLE ( 'design_supplier' ) ;
#272 = CARTESIAN_POINT ( 'NONE',  ( 8.000000000000000000, 9.797174393178825657E-16, 0.000000000000000000 ) ) ;
#273 = DIRECTION ( 'NONE',  ( -0.000000000000000000, -0.000000000000000000, -1.000000000000000000 ) ) ;
#274 = APPROVAL_ROLE ( '' ) ;
#275 = CARTESIAN_POINT ( 'NONE',  ( -8.000000000000000000, 0.000000000000000000, 0.000000000000000000 ) ) ;
#276 = CIRCLE ( 'NONE', #44, 8.000000000000000000 ) ;
#277 = DIRECTION ( 'NONE',  ( 0.000000000000000000, -1.000000000000000000, 0.000000000000000000 ) ) ;
#278 = FACE_OUTER_BOUND ( 'NONE', #211, .T. ) ;
#279 = EDGE_CURVE ( 'NONE', #293, #56, #2, .T. ) ;
#280 = EDGE_CURVE ( 'NONE', #32, #197, #102, .T. ) ;
#281 = ORIENTED_EDGE ( 'NONE', *, *, #114, .F. ) ;
#282 = PRODUCT_DEFINITION ( 'NEZNÁMÝ', '', #163, #138 ) ;
#283 = CARTESIAN_POINT ( 'NONE',  ( 0.000000000000000000, 0.000000000000000000, 5.199999999999982414 ) ) ;
#284 = ORIENTED_EDGE ( 'NONE', *, *, #303, .F. ) ;
#285 = PLANE ( 'NONE',  #234 ) ;
#286 = ORIENTED_EDGE ( 'NONE', *, *, #126, .T. ) ;
#287 = CARTESIAN_POINT ( 'NONE',  ( -5.000000000000000888, 0.000000000000000000, 405.0000000000000000 ) ) ;
#288 = CC_DESIGN_PERSON_AND_ORGANIZATION_ASSIGNMENT ( #201, #157, ( #282 ) ) ;
#289 = FACE_OUTER_BOUND ( 'NONE', #79, .T. ) ;
#290 = VERTEX_POINT ( 'NONE', #111 ) ;
#291 = APPROVAL_STATUS ( 'not_yet_approved' ) ;
#292 = DIRECTION ( 'NONE',  ( -1.000000000000000000, 0.000000000000000000, 0.000000000000000000 ) ) ;
#293 = VERTEX_POINT ( 'NONE', #88 ) ;
#294 = PERSON_AND_ORGANIZATION ( #97, #300 ) ;
#295 = CARTESIAN_POINT ( 'NONE',  ( 0.000000000000000000, 0.000000000000000000, 5.000000000000000000 ) ) ;
#296 = DATE_TIME_ROLE ( 'creation_date' ) ;
#297 = EDGE_CURVE ( 'NONE', #188, #293, #52, .T. ) ;
#298 = CARTESIAN_POINT ( 'NONE',  ( 0.000000000000000000, 0.000000000000000000, 405.0000000000000000 ) ) ;
#299 = CARTESIAN_POINT ( 'NONE',  ( 5.000000000000000888, 6.123233995736767268E-16, 405.0000000000000000 ) ) ;
#300 = ORGANIZATION ( 'NEURÈENÝ', 'NEURÈENÝ', '' ) ;
#301 = CIRCLE ( 'NONE', #154, 0.1999999999999996503 ) ;
#302 = LINE ( 'NONE', #299, #231 ) ;
#303 = EDGE_CURVE ( 'NONE', #32, #188, #302, .T. ) ;
#304 = DIRECTION ( 'NONE',  ( -0.000000000000000000, -0.000000000000000000, -1.000000000000000000 ) ) ;
#305 = AXIS2_PLACEMENT_3D ( 'NONE', #149, #24, #26 ) ;
#306 = CC_DESIGN_DATE_AND_TIME_ASSIGNMENT ( #109, #296, ( #282 ) ) ;
#307 =( GEOMETRIC_REPRESENTATION_CONTEXT ( 3 ) GLOBAL_UNCERTAINTY_ASSIGNED_CONTEXT ( ( #179 ) ) GLOBAL_UNIT_ASSIGNED_CONTEXT ( ( #177, #182, #255 ) ) REPRESENTATION_CONTEXT ( 'NONE', 'WORKASPACE' ) );
ENDSEC;
END-ISO-10303-21;
