ISO-10303-21;
HEADER;
FILE_DESCRIPTION (( 'STEP AP203' ),
    '1' );
FILE_NAME ('c40e.STEP',
    '2022-07-07T10:27:02',
    ( '' ),
    ( '' ),
    'SwSTEP 2.0',
    'SolidWorks 2019',
    '' );
FILE_SCHEMA (( 'CONFIG_CONTROL_DESIGN' ));
ENDSEC;

DATA;
#1 = ORIENTED_EDGE ( 'NONE', *, *, #13, .T. ) ;
#2 = ORIENTED_EDGE ( 'NONE', *, *, #36, .F. ) ;
#3 = EDGE_CURVE ( 'NONE', #173, #75, #79, .T. ) ;
#4 = ORIENTED_EDGE ( 'NONE', *, *, #209, .T. ) ;
#5 = VERTEX_POINT ( 'NONE', #212 ) ;
#6 = ORGANIZATION ( 'NEURÈENÝ', 'NEURÈENÝ', '' ) ;
#7 = FACE_OUTER_BOUND ( 'NONE', #261, .T. ) ;
#8 = PLANE ( 'NONE',  #237 ) ;
#9 = PRODUCT_DEFINITION_SHAPE ( 'NONE', 'NONE',  #140 ) ;
#10 = CARTESIAN_POINT ( 'NONE',  ( 0.000000000000000000, 0.000000000000000000, 633.0000000000000000 ) ) ;
#11 = CYLINDRICAL_SURFACE ( 'NONE', #131, 1.750000000000000000 ) ;
#12 = DIRECTION ( 'NONE',  ( 0.000000000000000000, 0.000000000000000000, 1.000000000000000000 ) ) ;
#13 = EDGE_CURVE ( 'NONE', #286, #189, #125, .T. ) ;
#14 = APPROVAL_ROLE ( '' ) ;
#15 = SHAPE_DEFINITION_REPRESENTATION ( #9, #187 ) ;
#16 = DIRECTION ( 'NONE',  ( -1.000000000000000000, 1.224646799147354686E-16, 0.000000000000000000 ) ) ;
#17 = DATE_AND_TIME ( #181, #61 ) ;
#18 = PERSON ( 'NEURÈENÝ', 'NEURÈENÝ', 'NEURÈENÝ', ('NEURÈENÝ'), ('NEURÈENÝ'), ('NEURÈENÝ') ) ;
#19 = DIRECTION ( 'NONE',  ( 1.000000000000000000, 0.000000000000000000, 0.000000000000000000 ) ) ;
#20 = LOCAL_TIME ( 12, 27, 2.000000000000000000, #68 ) ;
#21 = DATE_AND_TIME ( #166, #194 ) ;
#22 = ORIENTED_EDGE ( 'NONE', *, *, #36, .T. ) ;
#23 = CC_DESIGN_PERSON_AND_ORGANIZATION_ASSIGNMENT ( #278, #303, ( #140 ) ) ;
#24 = ORIENTED_EDGE ( 'NONE', *, *, #152, .F. ) ;
#25 = CC_DESIGN_DATE_AND_TIME_ASSIGNMENT ( #115, #204, ( #27 ) ) ;
#26 = ORIENTED_EDGE ( 'NONE', *, *, #50, .F. ) ;
#27 = SECURITY_CLASSIFICATION ( '', '', #226 ) ;
#28 = CARTESIAN_POINT ( 'NONE',  ( 0.000000000000000000, 0.000000000000000000, 3.000000000000000000 ) ) ;
#29 = ORIENTED_EDGE ( 'NONE', *, *, #152, .T. ) ;
#30 = ORIENTED_EDGE ( 'NONE', *, *, #283, .T. ) ;
#31 = EDGE_LOOP ( 'NONE', ( #128, #211, #81, #190 ) ) ;
#32 = DIRECTION ( 'NONE',  ( 0.000000000000000000, 0.000000000000000000, -1.000000000000000000 ) ) ;
#33 = VECTOR ( 'NONE', #40, 1000.000000000000000 ) ;
#34 = CARTESIAN_POINT ( 'NONE',  ( -1.750000000000000000, 0.000000000000000000, 633.0000000000000000 ) ) ;
#35 = FACE_OUTER_BOUND ( 'NONE', #305, .T. ) ;
#36 = EDGE_CURVE ( 'NONE', #95, #5, #285, .T. ) ;
#37 = CARTESIAN_POINT ( 'NONE',  ( 1.950000000000000178, 0.000000000000000000, 2.999999999999990674 ) ) ;
#38 = FACE_OUTER_BOUND ( 'NONE', #101, .T. ) ;
#39 = MANIFOLD_SOLID_BREP ( 'Zaoblit1', #279 ) ;
#40 = DIRECTION ( 'NONE',  ( -0.000000000000000000, -0.000000000000000000, -1.000000000000000000 ) ) ;
#41 = PERSON_AND_ORGANIZATION_ROLE ( 'design_supplier' ) ;
#42 = APPROVAL_ROLE ( '' ) ;
#43 = AXIS2_PLACEMENT_3D ( 'NONE', #196, #12, #216 ) ;
#44 = ADVANCED_FACE ( 'NONE', ( #284, #193 ), #255, .T. ) ;
#45 = CYLINDRICAL_SURFACE ( 'NONE', #93, 1.750000000000000000 ) ;
#46 = DIRECTION ( 'NONE',  ( 1.000000000000000000, 0.000000000000000000, -0.000000000000000000 ) ) ;
#47 = DIRECTION ( 'NONE',  ( 0.000000000000000000, 0.000000000000000000, 1.000000000000000000 ) ) ;
#48 = DIRECTION ( 'NONE',  ( -1.000000000000000000, 0.000000000000000000, 0.000000000000000000 ) ) ;
#49 = TOROIDAL_SURFACE ( 'NONE', #90, 1.950000000000000178, 0.2000000000000000111 ) ;
#50 = EDGE_CURVE ( 'NONE', #167, #286, #130, .T. ) ;
#51 = ORIENTED_EDGE ( 'NONE', *, *, #3, .T. ) ;
#52 = APPROVAL ( #179, 'NEURÈENÝ' ) ;
#53 = APPLICATION_CONTEXT ( 'configuration controlled 3d designs of mechanical parts and assemblies' ) ;
#54 = ORIENTED_EDGE ( 'NONE', *, *, #266, .F. ) ;
#55 = CARTESIAN_POINT ( 'NONE',  ( 1.750000000000000000, 2.143131898507868297E-16, 633.0000000000000000 ) ) ;
#56 = ORIENTED_EDGE ( 'NONE', *, *, #289, .T. ) ;
#57 = DIRECTION ( 'NONE',  ( 0.000000000000000000, 0.000000000000000000, 1.000000000000000000 ) ) ;
#58 = PRODUCT_RELATED_PRODUCT_CATEGORY ( 'detail', '', ( #66 ) ) ;
#59 = FACE_OUTER_BOUND ( 'NONE', #153, .T. ) ;
#60 = LINE ( 'NONE', #114, #33 ) ;
#61 = LOCAL_TIME ( 12, 27, 2.000000000000000000, #117 ) ;
#62 = DIRECTION ( 'NONE',  ( 0.000000000000000000, 0.000000000000000000, 1.000000000000000000 ) ) ;
#63 = VECTOR ( 'NONE', #151, 1000.000000000000000 ) ;
#64 = CARTESIAN_POINT ( 'NONE',  ( 0.000000000000000000, 0.000000000000000000, 0.000000000000000000 ) ) ;
#65 =( GEOMETRIC_REPRESENTATION_CONTEXT ( 3 ) GLOBAL_UNCERTAINTY_ASSIGNED_CONTEXT ( ( #83 ) ) GLOBAL_UNIT_ASSIGNED_CONTEXT ( ( #87, #272, #142 ) ) REPRESENTATION_CONTEXT ( 'NONE', 'WORKASPACE' ) );
#66 = PRODUCT ( 'c40e', 'c40e', '', ( #144 ) ) ;
#67 = APPROVAL_DATE_TIME ( #274, #52 ) ;
#68 = COORDINATED_UNIVERSAL_TIME_OFFSET ( 1, 0, .AHEAD. ) ;
#69 = DATE_AND_TIME ( #207, #20 ) ;
#70 = EDGE_CURVE ( 'NONE', #286, #75, #236, .T. ) ;
#71 = CIRCLE ( 'NONE', #271, 3.500000000000000444 ) ;
#72 = PERSON_AND_ORGANIZATION_ROLE ( 'creator' ) ;
#73 = DIRECTION ( 'NONE',  ( 1.000000000000000000, 0.000000000000000000, 0.000000000000000000 ) ) ;
#74 = APPROVAL_ROLE ( '' ) ;
#75 = VERTEX_POINT ( 'NONE', #103 ) ;
#76 = EDGE_CURVE ( 'NONE', #75, #286, #268, .T. ) ;
#77 = DIRECTION ( 'NONE',  ( -1.000000000000000000, 0.000000000000000000, 0.000000000000000000 ) ) ;
#78 = ORIENTED_EDGE ( 'NONE', *, *, #102, .T. ) ;
#79 = LINE ( 'NONE', #55, #63 ) ;
#80 = CC_DESIGN_PERSON_AND_ORGANIZATION_ASSIGNMENT ( #282, #256, ( #27 ) ) ;
#81 = ORIENTED_EDGE ( 'NONE', *, *, #50, .T. ) ;
#82 = APPROVAL ( #161, 'NEURÈENÝ' ) ;
#83 = UNCERTAINTY_MEASURE_WITH_UNIT (LENGTH_MEASURE( 1.000000000000000082E-05 ), #87, 'distance_accuracy_value', 'NONE');
#84 = FACE_OUTER_BOUND ( 'NONE', #306, .T. ) ;
#85 = CC_DESIGN_PERSON_AND_ORGANIZATION_ASSIGNMENT ( #252, #72, ( #111 ) ) ;
#86 = DIRECTION ( 'NONE',  ( 1.000000000000000000, 0.000000000000000000, -0.000000000000000000 ) ) ;
#87 =( LENGTH_UNIT ( ) NAMED_UNIT ( * ) SI_UNIT ( .MILLI., .METRE. ) );
#88 = DIRECTION ( 'NONE',  ( 0.000000000000000000, 0.000000000000000000, 1.000000000000000000 ) ) ;
#89 = PERSON_AND_ORGANIZATION ( #18, #6 ) ;
#90 = AXIS2_PLACEMENT_3D ( 'NONE', #292, #107, #223 ) ;
#91 = PERSON_AND_ORGANIZATION ( #18, #6 ) ;
#92 = EDGE_CURVE ( 'NONE', #75, #192, #104, .T. ) ;
#93 = AXIS2_PLACEMENT_3D ( 'NONE', #106, #191, #77 ) ;
#94 = APPLICATION_PROTOCOL_DEFINITION ( 'international standard', 'config_control_design', 1994, #53 ) ;
#95 = VERTEX_POINT ( 'NONE', #145 ) ;
#96 = DATE_TIME_ROLE ( 'creation_date' ) ;
#97 = ADVANCED_FACE ( 'NONE', ( #215 ), #45, .T. ) ;
#98 = CARTESIAN_POINT ( 'NONE',  ( 0.000000000000000000, 0.000000000000000000, 3.000000000000000000 ) ) ;
#99 = ORIENTED_EDGE ( 'NONE', *, *, #209, .F. ) ;
#100 = VECTOR ( 'NONE', #265, 1000.000000000000000 ) ;
#101 = EDGE_LOOP ( 'NONE', ( #227, #1, #169, #165 ) ) ;
#102 = EDGE_CURVE ( 'NONE', #167, #173, #163, .T. ) ;
#103 = CARTESIAN_POINT ( 'NONE',  ( 1.750000000000000000, 2.143131898507868297E-16, 3.199999999999980638 ) ) ;
#104 = CIRCLE ( 'NONE', #182, 0.2000000000000000944 ) ;
#105 = CARTESIAN_POINT ( 'NONE',  ( 0.000000000000000000, 0.000000000000000000, 3.000000000000000000 ) ) ;
#106 = CARTESIAN_POINT ( 'NONE',  ( 0.000000000000000000, 0.000000000000000000, 633.0000000000000000 ) ) ;
#107 = DIRECTION ( 'NONE',  ( 0.000000000000000000, 0.000000000000000000, 1.000000000000000000 ) ) ;
#108 = DIRECTION ( 'NONE',  ( 0.000000000000000000, 0.000000000000000000, 1.000000000000000000 ) ) ;
#109 = AXIS2_PLACEMENT_3D ( 'NONE', #288, #174, #19 ) ;
#110 = CARTESIAN_POINT ( 'NONE',  ( -1.750000000000000000, 0.000000000000000000, 3.199999999999980638 ) ) ;
#111 = PRODUCT_DEFINITION_FORMATION_WITH_SPECIFIED_SOURCE ( 'LIBOVOLNÝ', '', #66, .NOT_KNOWN. ) ;
#112 = CARTESIAN_POINT ( 'NONE',  ( 0.000000000000000000, 0.000000000000000000, 3.000000000000000000 ) ) ;
#113 = APPROVAL ( #164, 'NEURÈENÝ' ) ;
#114 = CARTESIAN_POINT ( 'NONE',  ( 3.500000000000000444, 4.286263797015737088E-16, 3.000000000000000000 ) ) ;
#115 = DATE_AND_TIME ( #254, #122 ) ;
#116 = AXIS2_PLACEMENT_3D ( 'NONE', #269, #108, #251 ) ;
#117 = COORDINATED_UNIVERSAL_TIME_OFFSET ( 1, 0, .AHEAD. ) ;
#118 = CARTESIAN_POINT ( 'NONE',  ( 0.000000000000000000, 0.000000000000000000, 0.000000000000000000 ) ) ;
#119 = ORIENTED_EDGE ( 'NONE', *, *, #266, .T. ) ;
#120 = AXIS2_PLACEMENT_3D ( 'NONE', #242, #240, #16 ) ;
#121 = ORIENTED_EDGE ( 'NONE', *, *, #217, .T. ) ;
#122 = LOCAL_TIME ( 12, 27, 2.000000000000000000, #300 ) ;
#123 = ORIENTED_EDGE ( 'NONE', *, *, #149, .F. ) ;
#124 = EDGE_LOOP ( 'NONE', ( #121, #235 ) ) ;
#125 = CIRCLE ( 'NONE', #120, 0.1999999999999998723 ) ;
#126 = VERTEX_POINT ( 'NONE', #257 ) ;
#127 = ORIENTED_EDGE ( 'NONE', *, *, #222, .F. ) ;
#128 = ORIENTED_EDGE ( 'NONE', *, *, #3, .F. ) ;
#129 = VERTEX_POINT ( 'NONE', #172 ) ;
#130 = LINE ( 'NONE', #281, #100 ) ;
#131 = AXIS2_PLACEMENT_3D ( 'NONE', #293, #136, #134 ) ;
#132 = APPROVAL_PERSON_ORGANIZATION ( #231, #113, #42 ) ;
#133 = CARTESIAN_POINT ( 'NONE',  ( -3.500000000000000444, 0.000000000000000000, 3.000000000000000000 ) ) ;
#134 = DIRECTION ( 'NONE',  ( -1.000000000000000000, 0.000000000000000000, 0.000000000000000000 ) ) ;
#135 = ADVANCED_FACE ( 'NONE', ( #205 ), #195, .T. ) ;
#136 = DIRECTION ( 'NONE',  ( -0.000000000000000000, -0.000000000000000000, -1.000000000000000000 ) ) ;
#137 = CC_DESIGN_SECURITY_CLASSIFICATION ( #27, ( #111 ) ) ;
#138 = CARTESIAN_POINT ( 'NONE',  ( 0.000000000000000000, 0.000000000000000000, 0.000000000000000000 ) ) ;
#139 = PERSON_AND_ORGANIZATION ( #18, #6 ) ;
#140 = PRODUCT_DEFINITION ( 'NEZNÁMÝ', '', #111, #244 ) ;
#141 = DIRECTION ( 'NONE',  ( 1.000000000000000000, 0.000000000000000000, 0.000000000000000000 ) ) ;
#142 =( NAMED_UNIT ( * ) SI_UNIT ( $, .STERADIAN. ) SOLID_ANGLE_UNIT ( ) );
#143 = CARTESIAN_POINT ( 'NONE',  ( 0.000000000000000000, 0.000000000000000000, 633.0000000000000000 ) ) ;
#144 = MECHANICAL_CONTEXT ( 'NONE', #277, 'mechanical' ) ;
#145 = CARTESIAN_POINT ( 'NONE',  ( -3.500000000000000444, 0.000000000000000000, 3.000000000000000000 ) ) ;
#146 = CARTESIAN_POINT ( 'NONE',  ( 0.000000000000000000, 0.000000000000000000, 3.000000000000000000 ) ) ;
#147 = TOROIDAL_SURFACE ( 'NONE', #280, 1.950000000000000178, 0.2000000000000000111 ) ;
#148 = EDGE_LOOP ( 'NONE', ( #127, #2, #4, #119 ) ) ;
#149 = EDGE_CURVE ( 'NONE', #189, #192, #219, .T. ) ;
#150 = APPROVAL_PERSON_ORGANIZATION ( #139, #52, #74 ) ;
#151 = DIRECTION ( 'NONE',  ( -0.000000000000000000, -0.000000000000000000, -1.000000000000000000 ) ) ;
#152 = EDGE_CURVE ( 'NONE', #173, #167, #177, .T. ) ;
#153 = EDGE_LOOP ( 'NONE', ( #78, #29 ) ) ;
#154 = ORIENTED_EDGE ( 'NONE', *, *, #13, .F. ) ;
#155 = CARTESIAN_POINT ( 'NONE',  ( 0.000000000000000000, 0.000000000000000000, 3.199999999999980638 ) ) ;
#156 = DIRECTION ( 'NONE',  ( 1.000000000000000000, 0.000000000000000000, 0.000000000000000000 ) ) ;
#157 = DIRECTION ( 'NONE',  ( 1.000000000000000000, 0.000000000000000000, 0.000000000000000000 ) ) ;
#158 = CARTESIAN_POINT ( 'NONE',  ( 0.000000000000000000, 0.000000000000000000, 3.000000000000000000 ) ) ;
#159 = CARTESIAN_POINT ( 'NONE',  ( 0.000000000000000000, 0.000000000000000000, 633.0000000000000000 ) ) ;
#160 = ADVANCED_FACE ( 'NONE', ( #7 ), #49, .F. ) ;
#161 = APPROVAL_STATUS ( 'not_yet_approved' ) ;
#162 = COORDINATED_UNIVERSAL_TIME_OFFSET ( 1, 0, .AHEAD. ) ;
#163 = CIRCLE ( 'NONE', #287, 1.750000000000000000 ) ;
#164 = APPROVAL_STATUS ( 'not_yet_approved' ) ;
#165 = ORIENTED_EDGE ( 'NONE', *, *, #92, .F. ) ;
#166 = CALENDAR_DATE ( 2022, 7, 7 ) ;
#167 = VERTEX_POINT ( 'NONE', #34 ) ;
#168 = AXIS2_PLACEMENT_3D ( 'NONE', #158, #201, #176 ) ;
#169 = ORIENTED_EDGE ( 'NONE', *, *, #217, .F. ) ;
#170 = ADVANCED_FACE ( 'NONE', ( #84 ), #11, .T. ) ;
#171 = ORIENTED_EDGE ( 'NONE', *, *, #76, .T. ) ;
#172 = CARTESIAN_POINT ( 'NONE',  ( 3.500000000000000444, 4.286263797015737088E-16, 0.000000000000000000 ) ) ;
#173 = VERTEX_POINT ( 'NONE', #220 ) ;
#174 = DIRECTION ( 'NONE',  ( 0.000000000000000000, 0.000000000000000000, 1.000000000000000000 ) ) ;
#175 = DIRECTION ( 'NONE',  ( 1.000000000000000000, 0.000000000000000000, 0.000000000000000000 ) ) ;
#176 = DIRECTION ( 'NONE',  ( 1.000000000000000000, 0.000000000000000000, 0.000000000000000000 ) ) ;
#177 = CIRCLE ( 'NONE', #270, 1.750000000000000000 ) ;
#178 = AXIS2_PLACEMENT_3D ( 'NONE', #98, #258, #48 ) ;
#179 = APPROVAL_STATUS ( 'not_yet_approved' ) ;
#180 = CC_DESIGN_APPROVAL ( #82, ( #140 ) ) ;
#181 = CALENDAR_DATE ( 2022, 7, 7 ) ;
#182 = AXIS2_PLACEMENT_3D ( 'NONE', #229, #304, #32 ) ;
#183 = COORDINATED_UNIVERSAL_TIME_OFFSET ( 1, 0, .AHEAD. ) ;
#184 = DIRECTION ( 'NONE',  ( 0.000000000000000000, 0.000000000000000000, 1.000000000000000000 ) ) ;
#185 = PERSON_AND_ORGANIZATION ( #18, #6 ) ;
#186 = DIRECTION ( 'NONE',  ( 0.000000000000000000, 0.000000000000000000, 1.000000000000000000 ) ) ;
#187 = ADVANCED_BREP_SHAPE_REPRESENTATION ( 'c40e', ( #39, #299 ), #65 ) ;
#188 = CC_DESIGN_PERSON_AND_ORGANIZATION_ASSIGNMENT ( #89, #228, ( #66 ) ) ;
#189 = VERTEX_POINT ( 'NONE', #221 ) ;
#190 = ORIENTED_EDGE ( 'NONE', *, *, #70, .T. ) ;
#191 = DIRECTION ( 'NONE',  ( -0.000000000000000000, -0.000000000000000000, -1.000000000000000000 ) ) ;
#192 = VERTEX_POINT ( 'NONE', #37 ) ;
#193 = FACE_OUTER_BOUND ( 'NONE', #264, .T. ) ;
#194 = LOCAL_TIME ( 12, 27, 2.000000000000000000, #183 ) ;
#195 = CYLINDRICAL_SURFACE ( 'NONE', #178, 3.500000000000000444 ) ;
#196 = CARTESIAN_POINT ( 'NONE',  ( 0.000000000000000000, 0.000000000000000000, 3.000000000000000000 ) ) ;
#197 = AXIS2_PLACEMENT_3D ( 'NONE', #112, #273, #267 ) ;
#198 = DIRECTION ( 'NONE',  ( -0.000000000000000000, -0.000000000000000000, -1.000000000000000000 ) ) ;
#199 = CYLINDRICAL_SURFACE ( 'NONE', #197, 3.500000000000000444 ) ;
#200 = ADVANCED_FACE ( 'NONE', ( #246 ), #199, .T. ) ;
#201 = DIRECTION ( 'NONE',  ( -0.000000000000000000, -0.000000000000000000, -1.000000000000000000 ) ) ;
#202 = AXIS2_PLACEMENT_3D ( 'NONE', #10, #296, #86 ) ;
#203 = APPLICATION_PROTOCOL_DEFINITION ( 'international standard', 'config_control_design', 1994, #277 ) ;
#204 = DATE_TIME_ROLE ( 'classification_date' ) ;
#205 = FACE_OUTER_BOUND ( 'NONE', #148, .T. ) ;
#206 = CC_DESIGN_PERSON_AND_ORGANIZATION_ASSIGNMENT ( #185, #41, ( #111 ) ) ;
#207 = CALENDAR_DATE ( 2022, 7, 7 ) ;
#208 = DIRECTION ( 'NONE',  ( 0.000000000000000000, 0.000000000000000000, 1.000000000000000000 ) ) ;
#209 = EDGE_CURVE ( 'NONE', #95, #126, #218, .T. ) ;
#210 = ORIENTED_EDGE ( 'NONE', *, *, #76, .F. ) ;
#211 = ORIENTED_EDGE ( 'NONE', *, *, #102, .F. ) ;
#212 = CARTESIAN_POINT ( 'NONE',  ( 3.500000000000000444, 4.286263797015737088E-16, 3.000000000000000000 ) ) ;
#213 = ORIENTED_EDGE ( 'NONE', *, *, #289, .F. ) ;
#214 = AXIS2_PLACEMENT_3D ( 'NONE', #105, #208, #301 ) ;
#215 = FACE_OUTER_BOUND ( 'NONE', #31, .T. ) ;
#216 = DIRECTION ( 'NONE',  ( 1.000000000000000000, 0.000000000000000000, 0.000000000000000000 ) ) ;
#217 = EDGE_CURVE ( 'NONE', #192, #189, #263, .T. ) ;
#218 = LINE ( 'NONE', #133, #298 ) ;
#219 = CIRCLE ( 'NONE', #247, 1.950000000000000178 ) ;
#220 = CARTESIAN_POINT ( 'NONE',  ( 1.750000000000000000, 2.143131898507868297E-16, 633.0000000000000000 ) ) ;
#221 = CARTESIAN_POINT ( 'NONE',  ( -1.950000000000000178, 2.388061258337339136E-16, 2.999999999999990674 ) ) ;
#222 = EDGE_CURVE ( 'NONE', #5, #129, #60, .T. ) ;
#223 = DIRECTION ( 'NONE',  ( 1.000000000000000000, 0.000000000000000000, 0.000000000000000000 ) ) ;
#224 = APPROVAL_DATE_TIME ( #21, #113 ) ;
#225 = AXIS2_PLACEMENT_3D ( 'NONE', #28, #184, #46 ) ;
#226 = SECURITY_CLASSIFICATION_LEVEL ( 'unclassified' ) ;
#227 = ORIENTED_EDGE ( 'NONE', *, *, #70, .F. ) ;
#228 = PERSON_AND_ORGANIZATION_ROLE ( 'design_owner' ) ;
#229 = CARTESIAN_POINT ( 'NONE',  ( 1.950000000000000178, 0.000000000000000000, 3.199999999999980638 ) ) ;
#230 = ADVANCED_FACE ( 'NONE', ( #35 ), #8, .F. ) ;
#231 = PERSON_AND_ORGANIZATION ( #18, #6 ) ;
#232 = APPROVAL_PERSON_ORGANIZATION ( #91, #82, #14 ) ;
#233 = DIRECTION ( 'NONE',  ( 1.000000000000000000, 0.000000000000000000, 0.000000000000000000 ) ) ;
#234 = ORIENTED_EDGE ( 'NONE', *, *, #92, .T. ) ;
#235 = ORIENTED_EDGE ( 'NONE', *, *, #149, .T. ) ;
#236 = CIRCLE ( 'NONE', #243, 1.750000000000000000 ) ;
#237 = AXIS2_PLACEMENT_3D ( 'NONE', #64, #294, #250 ) ;
#238 = LOCAL_TIME ( 12, 27, 2.000000000000000000, #162 ) ;
#239 = ORIENTED_EDGE ( 'NONE', *, *, #283, .F. ) ;
#240 = DIRECTION ( 'NONE',  ( 1.224646799147353207E-16, 1.000000000000000000, -0.000000000000000000 ) ) ;
#241 = ORIENTED_EDGE ( 'NONE', *, *, #222, .T. ) ;
#242 = CARTESIAN_POINT ( 'NONE',  ( -1.950000000000000178, 2.388061258337339136E-16, 3.199999999999980638 ) ) ;
#243 = AXIS2_PLACEMENT_3D ( 'NONE', #291, #57, #233 ) ;
#244 = DESIGN_CONTEXT ( 'detailed design', #53, 'design' ) ;
#245 = ADVANCED_FACE ( 'NONE', ( #59 ), #295, .T. ) ;
#246 = FACE_OUTER_BOUND ( 'NONE', #260, .T. ) ;
#247 = AXIS2_PLACEMENT_3D ( 'NONE', #146, #262, #249 ) ;
#248 = DIRECTION ( 'NONE',  ( 0.000000000000000000, 0.000000000000000000, 1.000000000000000000 ) ) ;
#249 = DIRECTION ( 'NONE',  ( 1.000000000000000000, 0.000000000000000000, 0.000000000000000000 ) ) ;
#250 = DIRECTION ( 'NONE',  ( 1.000000000000000000, 0.000000000000000000, -0.000000000000000000 ) ) ;
#251 = DIRECTION ( 'NONE',  ( 1.000000000000000000, 0.000000000000000000, 0.000000000000000000 ) ) ;
#252 = PERSON_AND_ORGANIZATION ( #18, #6 ) ;
#253 = CALENDAR_DATE ( 2022, 7, 7 ) ;
#254 = CALENDAR_DATE ( 2022, 7, 7 ) ;
#255 = PLANE ( 'NONE',  #225 ) ;
#256 = PERSON_AND_ORGANIZATION_ROLE ( 'classification_officer' ) ;
#257 = CARTESIAN_POINT ( 'NONE',  ( -3.500000000000000444, 0.000000000000000000, 0.000000000000000000 ) ) ;
#258 = DIRECTION ( 'NONE',  ( -0.000000000000000000, -0.000000000000000000, -1.000000000000000000 ) ) ;
#259 = CC_DESIGN_APPROVAL ( #52, ( #111 ) ) ;
#260 = EDGE_LOOP ( 'NONE', ( #239, #241, #56, #99 ) ) ;
#261 = EDGE_LOOP ( 'NONE', ( #154, #210, #234, #123 ) ) ;
#262 = DIRECTION ( 'NONE',  ( -0.000000000000000000, -0.000000000000000000, -1.000000000000000000 ) ) ;
#263 = CIRCLE ( 'NONE', #168, 1.950000000000000178 ) ;
#264 = EDGE_LOOP ( 'NONE', ( #22, #30 ) ) ;
#265 = DIRECTION ( 'NONE',  ( -0.000000000000000000, -0.000000000000000000, -1.000000000000000000 ) ) ;
#266 = EDGE_CURVE ( 'NONE', #126, #129, #307, .T. ) ;
#267 = DIRECTION ( 'NONE',  ( -1.000000000000000000, 0.000000000000000000, 0.000000000000000000 ) ) ;
#268 = CIRCLE ( 'NONE', #109, 1.750000000000000000 ) ;
#269 = CARTESIAN_POINT ( 'NONE',  ( 0.000000000000000000, 0.000000000000000000, 0.000000000000000000 ) ) ;
#270 = AXIS2_PLACEMENT_3D ( 'NONE', #159, #248, #175 ) ;
#271 = AXIS2_PLACEMENT_3D ( 'NONE', #138, #88, #156 ) ;
#272 =( NAMED_UNIT ( * ) PLANE_ANGLE_UNIT ( ) SI_UNIT ( $, .RADIAN. ) );
#273 = DIRECTION ( 'NONE',  ( -0.000000000000000000, -0.000000000000000000, -1.000000000000000000 ) ) ;
#274 = DATE_AND_TIME ( #253, #238 ) ;
#275 = CC_DESIGN_DATE_AND_TIME_ASSIGNMENT ( #69, #96, ( #140 ) ) ;
#276 = APPROVAL_DATE_TIME ( #17, #82 ) ;
#277 = APPLICATION_CONTEXT ( 'configuration controlled 3d designs of mechanical parts and assemblies' ) ;
#278 = PERSON_AND_ORGANIZATION ( #18, #6 ) ;
#279 = CLOSED_SHELL ( 'NONE', ( #297, #170, #200, #135, #44, #230, #97, #245, #160 ) ) ;
#280 = AXIS2_PLACEMENT_3D ( 'NONE', #155, #62, #157 ) ;
#281 = CARTESIAN_POINT ( 'NONE',  ( -1.750000000000000000, 0.000000000000000000, 633.0000000000000000 ) ) ;
#282 = PERSON_AND_ORGANIZATION ( #18, #6 ) ;
#283 = EDGE_CURVE ( 'NONE', #5, #95, #302, .T. ) ;
#284 = FACE_BOUND ( 'NONE', #124, .T. ) ;
#285 = CIRCLE ( 'NONE', #214, 3.500000000000000444 ) ;
#286 = VERTEX_POINT ( 'NONE', #110 ) ;
#287 = AXIS2_PLACEMENT_3D ( 'NONE', #143, #186, #73 ) ;
#288 = CARTESIAN_POINT ( 'NONE',  ( 0.000000000000000000, 0.000000000000000000, 3.199999999999980638 ) ) ;
#289 = EDGE_CURVE ( 'NONE', #129, #126, #71, .T. ) ;
#290 = CC_DESIGN_APPROVAL ( #113, ( #27 ) ) ;
#291 = CARTESIAN_POINT ( 'NONE',  ( 0.000000000000000000, 0.000000000000000000, 3.199999999999980638 ) ) ;
#292 = CARTESIAN_POINT ( 'NONE',  ( 0.000000000000000000, 0.000000000000000000, 3.199999999999980638 ) ) ;
#293 = CARTESIAN_POINT ( 'NONE',  ( 0.000000000000000000, 0.000000000000000000, 633.0000000000000000 ) ) ;
#294 = DIRECTION ( 'NONE',  ( 0.000000000000000000, 0.000000000000000000, 1.000000000000000000 ) ) ;
#295 = PLANE ( 'NONE',  #202 ) ;
#296 = DIRECTION ( 'NONE',  ( 0.000000000000000000, 0.000000000000000000, 1.000000000000000000 ) ) ;
#297 = ADVANCED_FACE ( 'NONE', ( #38 ), #147, .F. ) ;
#298 = VECTOR ( 'NONE', #198, 1000.000000000000000 ) ;
#299 = AXIS2_PLACEMENT_3D ( 'NONE', #118, #47, #141 ) ;
#300 = COORDINATED_UNIVERSAL_TIME_OFFSET ( 1, 0, .AHEAD. ) ;
#301 = DIRECTION ( 'NONE',  ( 1.000000000000000000, 0.000000000000000000, 0.000000000000000000 ) ) ;
#302 = CIRCLE ( 'NONE', #43, 3.500000000000000444 ) ;
#303 = PERSON_AND_ORGANIZATION_ROLE ( 'creator' ) ;
#304 = DIRECTION ( 'NONE',  ( 0.000000000000000000, -1.000000000000000000, 0.000000000000000000 ) ) ;
#305 = EDGE_LOOP ( 'NONE', ( #54, #213 ) ) ;
#306 = EDGE_LOOP ( 'NONE', ( #24, #51, #171, #26 ) ) ;
#307 = CIRCLE ( 'NONE', #116, 3.500000000000000444 ) ;
ENDSEC;
END-ISO-10303-21;
