ISO-10303-21;
HEADER;
FILE_DESCRIPTION (( 'STEP AP203' ),
    '1' );
FILE_NAME ('f22f.STEP',
    '2022-07-07T10:38:49',
    ( '' ),
    ( '' ),
    'SwSTEP 2.0',
    'SolidWorks 2019',
    '' );
FILE_SCHEMA (( 'CONFIG_CONTROL_DESIGN' ));
ENDSEC;

DATA;
#1 = AXIS2_PLACEMENT_3D ( 'NONE', #183, #290, #246 ) ;
#2 = EDGE_CURVE ( 'NONE', #106, #300, #267, .T. ) ;
#3 = ORIENTED_EDGE ( 'NONE', *, *, #123, .F. ) ;
#4 = COORDINATED_UNIVERSAL_TIME_OFFSET ( 1, 0, .AHEAD. ) ;
#5 = ORIENTED_EDGE ( 'NONE', *, *, #149, .F. ) ;
#6 = APPLICATION_PROTOCOL_DEFINITION ( 'international standard', 'config_control_design', 1994, #85 ) ;
#7 = ORIENTED_EDGE ( 'NONE', *, *, #259, .F. ) ;
#8 = DIRECTION ( 'NONE',  ( -0.000000000000000000, -0.000000000000000000, -1.000000000000000000 ) ) ;
#9 = PRODUCT ( 'f22f', 'f22f', '', ( #225 ) ) ;
#10 = FACE_OUTER_BOUND ( 'NONE', #31, .T. ) ;
#11 = EDGE_LOOP ( 'NONE', ( #30, #155 ) ) ;
#12 = ORIENTED_EDGE ( 'NONE', *, *, #51, .T. ) ;
#13 = DIRECTION ( 'NONE',  ( 1.000000000000000000, 0.000000000000000000, -0.000000000000000000 ) ) ;
#14 = DIRECTION ( 'NONE',  ( 0.000000000000000000, 0.000000000000000000, 1.000000000000000000 ) ) ;
#15 = FACE_OUTER_BOUND ( 'NONE', #143, .T. ) ;
#16 = ORGANIZATION ( 'NEURÈENÝ', 'NEURÈENÝ', '' ) ;
#17 = CARTESIAN_POINT ( 'NONE',  ( 0.000000000000000000, 0.000000000000000000, 1.700000000000007061 ) ) ;
#18 = PERSON ( 'NEURÈENÝ', 'NEURÈENÝ', 'NEURÈENÝ', ('NEURÈENÝ'), ('NEURÈENÝ'), ('NEURÈENÝ') ) ;
#19 = ORIENTED_EDGE ( 'NONE', *, *, #76, .F. ) ;
#20 = LINE ( 'NONE', #121, #126 ) ;
#21 = CLOSED_SHELL ( 'NONE', ( #261, #163, #53, #110, #69, #279, #307, #27, #212 ) ) ;
#22 = CARTESIAN_POINT ( 'NONE',  ( -0.7500000000000001110, 0.000000000000000000, 1.700000000000007061 ) ) ;
#23 =( GEOMETRIC_REPRESENTATION_CONTEXT ( 3 ) GLOBAL_UNCERTAINTY_ASSIGNED_CONTEXT ( ( #47 ) ) GLOBAL_UNIT_ASSIGNED_CONTEXT ( ( #40, #205, #57 ) ) REPRESENTATION_CONTEXT ( 'NONE', 'WORKASPACE' ) );
#24 = APPROVAL_STATUS ( 'not_yet_approved' ) ;
#25 = DATE_AND_TIME ( #214, #190 ) ;
#26 = CIRCLE ( 'NONE', #215, 0.7500000000000001110 ) ;
#27 = ADVANCED_FACE ( 'NONE', ( #276 ), #158, .T. ) ;
#28 = VECTOR ( 'NONE', #210, 1000.000000000000000 ) ;
#29 = APPROVAL_STATUS ( 'not_yet_approved' ) ;
#30 = ORIENTED_EDGE ( 'NONE', *, *, #259, .T. ) ;
#31 = EDGE_LOOP ( 'NONE', ( #172, #7, #150, #12 ) ) ;
#32 = PERSON_AND_ORGANIZATION_ROLE ( 'creator' ) ;
#33 = CYLINDRICAL_SURFACE ( 'NONE', #84, 1.500000000000000222 ) ;
#34 = DIRECTION ( 'NONE',  ( 0.000000000000000000, 0.000000000000000000, 1.000000000000000000 ) ) ;
#35 = EDGE_LOOP ( 'NONE', ( #226, #89, #254, #219 ) ) ;
#36 = EDGE_LOOP ( 'NONE', ( #5, #136, #139, #78 ) ) ;
#37 = CARTESIAN_POINT ( 'NONE',  ( 0.000000000000000000, 0.000000000000000000, 1.500000000000000000 ) ) ;
#38 = DIRECTION ( 'NONE',  ( 1.224646799147353207E-16, 1.000000000000000000, -0.000000000000000000 ) ) ;
#39 = DIRECTION ( 'NONE',  ( 0.000000000000000000, 0.000000000000000000, 1.000000000000000000 ) ) ;
#40 =( LENGTH_UNIT ( ) NAMED_UNIT ( * ) SI_UNIT ( .MILLI., .METRE. ) );
#41 = DIRECTION ( 'NONE',  ( 0.000000000000000000, 0.000000000000000000, 1.000000000000000000 ) ) ;
#42 = ORIENTED_EDGE ( 'NONE', *, *, #103, .F. ) ;
#43 = DIRECTION ( 'NONE',  ( 1.000000000000000000, 0.000000000000000000, 0.000000000000000000 ) ) ;
#44 = EDGE_CURVE ( 'NONE', #170, #245, #266, .T. ) ;
#45 = DIRECTION ( 'NONE',  ( 1.000000000000000000, 0.000000000000000000, 0.000000000000000000 ) ) ;
#46 = APPLICATION_CONTEXT ( 'configuration controlled 3d designs of mechanical parts and assemblies' ) ;
#47 = UNCERTAINTY_MEASURE_WITH_UNIT (LENGTH_MEASURE( 1.000000000000000082E-05 ), #40, 'distance_accuracy_value', 'NONE');
#48 = CC_DESIGN_PERSON_AND_ORGANIZATION_ASSIGNMENT ( #195, #99, ( #101 ) ) ;
#49 = PERSON_AND_ORGANIZATION_ROLE ( 'creator' ) ;
#50 = APPROVAL_STATUS ( 'not_yet_approved' ) ;
#51 = EDGE_CURVE ( 'NONE', #197, #245, #26, .T. ) ;
#52 = AXIS2_PLACEMENT_3D ( 'NONE', #207, #92, #160 ) ;
#53 = ADVANCED_FACE ( 'NONE', ( #151 ), #33, .T. ) ;
#54 = ORIENTED_EDGE ( 'NONE', *, *, #149, .T. ) ;
#55 = CALENDAR_DATE ( 2022, 7, 7 ) ;
#56 = CARTESIAN_POINT ( 'NONE',  ( 0.7500000000000001110, 9.184850993605150903E-17, 126.5000000000000000 ) ) ;
#57 =( NAMED_UNIT ( * ) SI_UNIT ( $, .STERADIAN. ) SOLID_ANGLE_UNIT ( ) );
#58 = DIRECTION ( 'NONE',  ( -1.000000000000000000, 0.000000000000000000, 0.000000000000000000 ) ) ;
#59 = COORDINATED_UNIVERSAL_TIME_OFFSET ( 1, 0, .AHEAD. ) ;
#60 = VERTEX_POINT ( 'NONE', #248 ) ;
#61 = DIRECTION ( 'NONE',  ( 0.000000000000000000, 0.000000000000000000, 1.000000000000000000 ) ) ;
#62 = DIRECTION ( 'NONE',  ( 0.000000000000000000, 0.000000000000000000, 1.000000000000000000 ) ) ;
#63 = DIRECTION ( 'NONE',  ( 1.000000000000000000, 0.000000000000000000, 0.000000000000000000 ) ) ;
#64 = FACE_OUTER_BOUND ( 'NONE', #35, .T. ) ;
#65 = ORIENTED_EDGE ( 'NONE', *, *, #255, .F. ) ;
#66 = CIRCLE ( 'NONE', #165, 0.2000000000000000944 ) ;
#67 = DIRECTION ( 'NONE',  ( 0.000000000000000000, -1.000000000000000000, 0.000000000000000000 ) ) ;
#68 = APPROVAL_PERSON_ORGANIZATION ( #168, #188, #102 ) ;
#69 = ADVANCED_FACE ( 'NONE', ( #200, #15 ), #293, .T. ) ;
#70 = DIRECTION ( 'NONE',  ( -1.000000000000000000, 0.000000000000000000, 0.000000000000000000 ) ) ;
#71 = DESIGN_CONTEXT ( 'detailed design', #46, 'design' ) ;
#72 = CIRCLE ( 'NONE', #285, 0.7500000000000001110 ) ;
#73 = LOCAL_TIME ( 12, 38, 49.00000000000000000, #4 ) ;
#74 = EDGE_CURVE ( 'NONE', #170, #178, #72, .T. ) ;
#75 = DATE_TIME_ROLE ( 'classification_date' ) ;
#76 = EDGE_CURVE ( 'NONE', #60, #109, #138, .T. ) ;
#77 = APPROVAL_PERSON_ORGANIZATION ( #124, #281, #191 ) ;
#78 = ORIENTED_EDGE ( 'NONE', *, *, #216, .F. ) ;
#79 = DIRECTION ( 'NONE',  ( 0.000000000000000000, 0.000000000000000000, 1.000000000000000000 ) ) ;
#80 = ORIENTED_EDGE ( 'NONE', *, *, #224, .F. ) ;
#81 = DIRECTION ( 'NONE',  ( 0.000000000000000000, 0.000000000000000000, 1.000000000000000000 ) ) ;
#82 = APPLICATION_PROTOCOL_DEFINITION ( 'international standard', 'config_control_design', 1994, #46 ) ;
#83 = DIRECTION ( 'NONE',  ( -0.000000000000000000, -0.000000000000000000, -1.000000000000000000 ) ) ;
#84 = AXIS2_PLACEMENT_3D ( 'NONE', #132, #8, #58 ) ;
#85 = APPLICATION_CONTEXT ( 'configuration controlled 3d designs of mechanical parts and assemblies' ) ;
#86 = ORIENTED_EDGE ( 'NONE', *, *, #100, .T. ) ;
#87 = CARTESIAN_POINT ( 'NONE',  ( 0.000000000000000000, 0.000000000000000000, 1.700000000000007061 ) ) ;
#88 = AXIS2_PLACEMENT_3D ( 'NONE', #116, #91, #274 ) ;
#89 = ORIENTED_EDGE ( 'NONE', *, *, #255, .T. ) ;
#90 = CARTESIAN_POINT ( 'NONE',  ( 1.500000000000000222, 1.836970198721030181E-16, 1.500000000000000000 ) ) ;
#91 = DIRECTION ( 'NONE',  ( 0.000000000000000000, 0.000000000000000000, 1.000000000000000000 ) ) ;
#92 = DIRECTION ( 'NONE',  ( -0.000000000000000000, -0.000000000000000000, -1.000000000000000000 ) ) ;
#93 = DIRECTION ( 'NONE',  ( 0.000000000000000000, 0.000000000000000000, 1.000000000000000000 ) ) ;
#94 = CC_DESIGN_PERSON_AND_ORGANIZATION_ASSIGNMENT ( #217, #194, ( #213 ) ) ;
#95 = CARTESIAN_POINT ( 'NONE',  ( 1.500000000000000222, 1.836970198721030181E-16, 0.000000000000000000 ) ) ;
#96 = LOCAL_TIME ( 12, 38, 49.00000000000000000, #193 ) ;
#97 = CARTESIAN_POINT ( 'NONE',  ( -0.7500000000000001110, 0.000000000000000000, 126.5000000000000000 ) ) ;
#98 = CIRCLE ( 'NONE', #230, 1.500000000000000222 ) ;
#99 = PERSON_AND_ORGANIZATION_ROLE ( 'design_supplier' ) ;
#100 = EDGE_CURVE ( 'NONE', #245, #109, #66, .T. ) ;
#101 = PRODUCT_DEFINITION_FORMATION_WITH_SPECIFIED_SOURCE ( 'LIBOVOLNÝ', '', #9, .NOT_KNOWN. ) ;
#102 = APPROVAL_ROLE ( '' ) ;
#103 = EDGE_CURVE ( 'NONE', #269, #302, #241, .T. ) ;
#104 = APPROVAL_DATE_TIME ( #25, #188 ) ;
#105 = CC_DESIGN_SECURITY_CLASSIFICATION ( #213, ( #101 ) ) ;
#106 = VERTEX_POINT ( 'NONE', #95 ) ;
#107 = ORIENTED_EDGE ( 'NONE', *, *, #74, .F. ) ;
#108 = PLANE ( 'NONE',  #287 ) ;
#109 = VERTEX_POINT ( 'NONE', #184 ) ;
#110 = ADVANCED_FACE ( 'NONE', ( #159 ), #208, .T. ) ;
#111 = PERSON_AND_ORGANIZATION ( #18, #16 ) ;
#112 = DIRECTION ( 'NONE',  ( -0.000000000000000000, -0.000000000000000000, -1.000000000000000000 ) ) ;
#113 = ORIENTED_EDGE ( 'NONE', *, *, #76, .T. ) ;
#114 = AXIS2_PLACEMENT_3D ( 'NONE', #305, #61, #45 ) ;
#115 = DIRECTION ( 'NONE',  ( -0.000000000000000000, -0.000000000000000000, -1.000000000000000000 ) ) ;
#116 = CARTESIAN_POINT ( 'NONE',  ( 0.000000000000000000, 0.000000000000000000, 126.5000000000000000 ) ) ;
#117 = CC_DESIGN_APPROVAL ( #281, ( #213 ) ) ;
#118 = DIRECTION ( 'NONE',  ( 1.000000000000000000, 0.000000000000000000, 0.000000000000000000 ) ) ;
#119 = CC_DESIGN_DATE_AND_TIME_ASSIGNMENT ( #262, #75, ( #213 ) ) ;
#120 = CARTESIAN_POINT ( 'NONE',  ( 0.9500000000000000666, 0.000000000000000000, 1.700000000000007061 ) ) ;
#121 = CARTESIAN_POINT ( 'NONE',  ( 1.500000000000000222, 1.836970198721030181E-16, 1.500000000000000000 ) ) ;
#122 = AXIS2_PLACEMENT_3D ( 'NONE', #234, #14, #43 ) ;
#123 = EDGE_CURVE ( 'NONE', #300, #106, #227, .T. ) ;
#124 = PERSON_AND_ORGANIZATION ( #18, #16 ) ;
#125 = EDGE_CURVE ( 'NONE', #245, #197, #263, .T. ) ;
#126 = VECTOR ( 'NONE', #186, 1000.000000000000000 ) ;
#127 = PERSON_AND_ORGANIZATION ( #18, #16 ) ;
#128 = COORDINATED_UNIVERSAL_TIME_OFFSET ( 1, 0, .AHEAD. ) ;
#129 = ORIENTED_EDGE ( 'NONE', *, *, #216, .T. ) ;
#130 = EDGE_LOOP ( 'NONE', ( #221, #42, #129, #289 ) ) ;
#131 = CALENDAR_DATE ( 2022, 7, 7 ) ;
#132 = CARTESIAN_POINT ( 'NONE',  ( 0.000000000000000000, 0.000000000000000000, 1.500000000000000000 ) ) ;
#133 = EDGE_LOOP ( 'NONE', ( #250, #113 ) ) ;
#134 = DIRECTION ( 'NONE',  ( 0.000000000000000000, 0.000000000000000000, 1.000000000000000000 ) ) ;
#135 = CARTESIAN_POINT ( 'NONE',  ( -1.500000000000000222, 0.000000000000000000, 1.500000000000000000 ) ) ;
#136 = ORIENTED_EDGE ( 'NONE', *, *, #179, .T. ) ;
#137 = DIRECTION ( 'NONE',  ( -1.000000000000000000, 1.224646799147353207E-16, 0.000000000000000000 ) ) ;
#138 = CIRCLE ( 'NONE', #52, 0.9500000000000000666 ) ;
#139 = ORIENTED_EDGE ( 'NONE', *, *, #2, .T. ) ;
#140 = DATE_AND_TIME ( #131, #192 ) ;
#141 = APPROVAL_PERSON_ORGANIZATION ( #264, #147, #201 ) ;
#142 = AXIS2_PLACEMENT_3D ( 'NONE', #17, #249, #294 ) ;
#143 = EDGE_LOOP ( 'NONE', ( #203, #54 ) ) ;
#144 = CARTESIAN_POINT ( 'NONE',  ( -0.7500000000000001110, 0.000000000000000000, 126.5000000000000000 ) ) ;
#145 = CARTESIAN_POINT ( 'NONE',  ( 0.000000000000000000, 0.000000000000000000, 1.500000000000000000 ) ) ;
#146 = ADVANCED_BREP_SHAPE_REPRESENTATION ( 'f22f', ( #296, #169 ), #23 ) ;
#147 = APPROVAL ( #29, 'NEURÈENÝ' ) ;
#148 = PERSON_AND_ORGANIZATION_ROLE ( 'design_owner' ) ;
#149 = EDGE_CURVE ( 'NONE', #302, #269, #98, .T. ) ;
#150 = ORIENTED_EDGE ( 'NONE', *, *, #224, .T. ) ;
#151 = FACE_OUTER_BOUND ( 'NONE', #36, .T. ) ;
#152 = CIRCLE ( 'NONE', #176, 0.9500000000000000666 ) ;
#153 = CARTESIAN_POINT ( 'NONE',  ( 0.000000000000000000, 0.000000000000000000, 0.000000000000000000 ) ) ;
#154 = CARTESIAN_POINT ( 'NONE',  ( 0.000000000000000000, 0.000000000000000000, 1.700000000000007061 ) ) ;
#155 = ORIENTED_EDGE ( 'NONE', *, *, #74, .T. ) ;
#156 = DIRECTION ( 'NONE',  ( 1.000000000000000000, 0.000000000000000000, 0.000000000000000000 ) ) ;
#157 = DIRECTION ( 'NONE',  ( 1.000000000000000000, 0.000000000000000000, 0.000000000000000000 ) ) ;
#158 = PLANE ( 'NONE',  #185 ) ;
#159 = FACE_OUTER_BOUND ( 'NONE', #130, .T. ) ;
#160 = DIRECTION ( 'NONE',  ( 1.000000000000000000, 0.000000000000000000, 0.000000000000000000 ) ) ;
#161 = CC_DESIGN_PERSON_AND_ORGANIZATION_ASSIGNMENT ( #111, #148, ( #9 ) ) ;
#162 = AXIS2_PLACEMENT_3D ( 'NONE', #258, #303, #156 ) ;
#163 = ADVANCED_FACE ( 'NONE', ( #278 ), #231, .T. ) ;
#164 = CALENDAR_DATE ( 2022, 7, 7 ) ;
#165 = AXIS2_PLACEMENT_3D ( 'NONE', #120, #67, #304 ) ;
#166 = SHAPE_DEFINITION_REPRESENTATION ( #282, #146 ) ;
#167 = DATE_AND_TIME ( #164, #96 ) ;
#168 = PERSON_AND_ORGANIZATION ( #18, #16 ) ;
#169 = AXIS2_PLACEMENT_3D ( 'NONE', #299, #79, #222 ) ;
#170 = VERTEX_POINT ( 'NONE', #253 ) ;
#171 = CYLINDRICAL_SURFACE ( 'NONE', #270, 0.7500000000000001110 ) ;
#172 = ORIENTED_EDGE ( 'NONE', *, *, #44, .F. ) ;
#173 = DIRECTION ( 'NONE',  ( 1.000000000000000000, 0.000000000000000000, -0.000000000000000000 ) ) ;
#174 = VECTOR ( 'NONE', #83, 1000.000000000000000 ) ;
#175 = CARTESIAN_POINT ( 'NONE',  ( 0.000000000000000000, 0.000000000000000000, 1.500000000000000000 ) ) ;
#176 = AXIS2_PLACEMENT_3D ( 'NONE', #37, #115, #63 ) ;
#177 = DATE_AND_TIME ( #55, #187 ) ;
#178 = VERTEX_POINT ( 'NONE', #144 ) ;
#179 = EDGE_CURVE ( 'NONE', #302, #106, #20, .T. ) ;
#180 = CARTESIAN_POINT ( 'NONE',  ( -0.9500000000000000666, 1.163414459189985682E-16, 1.700000000000007061 ) ) ;
#181 = ORIENTED_EDGE ( 'NONE', *, *, #125, .T. ) ;
#182 = DIRECTION ( 'NONE',  ( 1.000000000000000000, 0.000000000000000000, 0.000000000000000000 ) ) ;
#183 = CARTESIAN_POINT ( 'NONE',  ( 0.000000000000000000, 0.000000000000000000, 0.000000000000000000 ) ) ;
#184 = CARTESIAN_POINT ( 'NONE',  ( 0.9500000000000000666, 0.000000000000000000, 1.500000000000003553 ) ) ;
#185 = AXIS2_PLACEMENT_3D ( 'NONE', #198, #81, #173 ) ;
#186 = DIRECTION ( 'NONE',  ( -0.000000000000000000, -0.000000000000000000, -1.000000000000000000 ) ) ;
#187 = LOCAL_TIME ( 12, 38, 49.00000000000000000, #128 ) ;
#188 = APPROVAL ( #24, 'NEURÈENÝ' ) ;
#189 = AXIS2_PLACEMENT_3D ( 'NONE', #175, #134, #223 ) ;
#190 = LOCAL_TIME ( 12, 38, 49.00000000000000000, #238 ) ;
#191 = APPROVAL_ROLE ( '' ) ;
#192 = LOCAL_TIME ( 12, 38, 49.00000000000000000, #59 ) ;
#193 = COORDINATED_UNIVERSAL_TIME_OFFSET ( 1, 0, .AHEAD. ) ;
#194 = PERSON_AND_ORGANIZATION_ROLE ( 'classification_officer' ) ;
#195 = PERSON_AND_ORGANIZATION ( #18, #16 ) ;
#196 = AXIS2_PLACEMENT_3D ( 'NONE', #277, #257, #235 ) ;
#197 = VERTEX_POINT ( 'NONE', #22 ) ;
#198 = CARTESIAN_POINT ( 'NONE',  ( 0.000000000000000000, 0.000000000000000000, 126.5000000000000000 ) ) ;
#199 = CARTESIAN_POINT ( 'NONE',  ( -1.500000000000000222, 0.000000000000000000, 0.000000000000000000 ) ) ;
#200 = FACE_BOUND ( 'NONE', #133, .T. ) ;
#201 = APPROVAL_ROLE ( '' ) ;
#202 = DIRECTION ( 'NONE',  ( 1.000000000000000000, 0.000000000000000000, 0.000000000000000000 ) ) ;
#203 = ORIENTED_EDGE ( 'NONE', *, *, #103, .T. ) ;
#204 = CIRCLE ( 'NONE', #211, 0.2000000000000000944 ) ;
#205 =( NAMED_UNIT ( * ) PLANE_ANGLE_UNIT ( ) SI_UNIT ( $, .RADIAN. ) );
#206 = CARTESIAN_POINT ( 'NONE',  ( -1.500000000000000222, 0.000000000000000000, 1.500000000000000000 ) ) ;
#207 = CARTESIAN_POINT ( 'NONE',  ( 0.000000000000000000, 0.000000000000000000, 1.500000000000000000 ) ) ;
#208 = CYLINDRICAL_SURFACE ( 'NONE', #298, 1.500000000000000222 ) ;
#209 = CARTESIAN_POINT ( 'NONE',  ( 0.000000000000000000, 0.000000000000000000, 1.500000000000000000 ) ) ;
#210 = DIRECTION ( 'NONE',  ( -0.000000000000000000, -0.000000000000000000, -1.000000000000000000 ) ) ;
#211 = AXIS2_PLACEMENT_3D ( 'NONE', #180, #38, #137 ) ;
#212 = ADVANCED_FACE ( 'NONE', ( #301 ), #260, .F. ) ;
#213 = SECURITY_CLASSIFICATION ( '', '', #240 ) ;
#214 = CALENDAR_DATE ( 2022, 7, 7 ) ;
#215 = AXIS2_PLACEMENT_3D ( 'NONE', #154, #62, #157 ) ;
#216 = EDGE_CURVE ( 'NONE', #269, #300, #228, .T. ) ;
#217 = PERSON_AND_ORGANIZATION ( #18, #16 ) ;
#218 = DIRECTION ( 'NONE',  ( -0.000000000000000000, -0.000000000000000000, -1.000000000000000000 ) ) ;
#219 = ORIENTED_EDGE ( 'NONE', *, *, #100, .F. ) ;
#220 = CARTESIAN_POINT ( 'NONE',  ( 0.000000000000000000, 0.000000000000000000, 126.5000000000000000 ) ) ;
#221 = ORIENTED_EDGE ( 'NONE', *, *, #179, .F. ) ;
#222 = DIRECTION ( 'NONE',  ( 1.000000000000000000, 0.000000000000000000, 0.000000000000000000 ) ) ;
#223 = DIRECTION ( 'NONE',  ( 1.000000000000000000, 0.000000000000000000, -0.000000000000000000 ) ) ;
#224 = EDGE_CURVE ( 'NONE', #178, #197, #251, .T. ) ;
#225 = MECHANICAL_CONTEXT ( 'NONE', #85, 'mechanical' ) ;
#226 = ORIENTED_EDGE ( 'NONE', *, *, #51, .F. ) ;
#227 = CIRCLE ( 'NONE', #162, 1.500000000000000222 ) ;
#228 = LINE ( 'NONE', #206, #28 ) ;
#229 = ORIENTED_EDGE ( 'NONE', *, *, #125, .F. ) ;
#230 = AXIS2_PLACEMENT_3D ( 'NONE', #145, #93, #202 ) ;
#231 = CYLINDRICAL_SURFACE ( 'NONE', #196, 0.7500000000000001110 ) ;
#232 = ORIENTED_EDGE ( 'NONE', *, *, #44, .T. ) ;
#233 = CC_DESIGN_PERSON_AND_ORGANIZATION_ASSIGNMENT ( #271, #32, ( #291 ) ) ;
#234 = CARTESIAN_POINT ( 'NONE',  ( 0.000000000000000000, 0.000000000000000000, 1.700000000000007061 ) ) ;
#235 = DIRECTION ( 'NONE',  ( -1.000000000000000000, 0.000000000000000000, 0.000000000000000000 ) ) ;
#236 = CIRCLE ( 'NONE', #88, 0.7500000000000001110 ) ;
#237 = CC_DESIGN_APPROVAL ( #188, ( #101 ) ) ;
#238 = COORDINATED_UNIVERSAL_TIME_OFFSET ( 1, 0, .AHEAD. ) ;
#239 = CC_DESIGN_DATE_AND_TIME_ASSIGNMENT ( #140, #243, ( #291 ) ) ;
#240 = SECURITY_CLASSIFICATION_LEVEL ( 'unclassified' ) ;
#241 = CIRCLE ( 'NONE', #114, 1.500000000000000222 ) ;
#242 = PRODUCT_RELATED_PRODUCT_CATEGORY ( 'detail', '', ( #9 ) ) ;
#243 = DATE_TIME_ROLE ( 'creation_date' ) ;
#244 = APPROVAL_DATE_TIME ( #177, #147 ) ;
#245 = VERTEX_POINT ( 'NONE', #295 ) ;
#246 = DIRECTION ( 'NONE',  ( 1.000000000000000000, 0.000000000000000000, 0.000000000000000000 ) ) ;
#247 = VECTOR ( 'NONE', #112, 1000.000000000000000 ) ;
#248 = CARTESIAN_POINT ( 'NONE',  ( -0.9500000000000000666, 1.163414459189985682E-16, 1.500000000000003553 ) ) ;
#249 = DIRECTION ( 'NONE',  ( 0.000000000000000000, 0.000000000000000000, 1.000000000000000000 ) ) ;
#250 = ORIENTED_EDGE ( 'NONE', *, *, #275, .T. ) ;
#251 = LINE ( 'NONE', #97, #247 ) ;
#252 = CARTESIAN_POINT ( 'NONE',  ( 0.000000000000000000, 0.000000000000000000, 126.5000000000000000 ) ) ;
#253 = CARTESIAN_POINT ( 'NONE',  ( 0.7500000000000001110, 9.184850993605150903E-17, 126.5000000000000000 ) ) ;
#254 = ORIENTED_EDGE ( 'NONE', *, *, #275, .F. ) ;
#255 = EDGE_CURVE ( 'NONE', #197, #60, #204, .T. ) ;
#256 = AXIS2_PLACEMENT_3D ( 'NONE', #87, #41, #182 ) ;
#257 = DIRECTION ( 'NONE',  ( -0.000000000000000000, -0.000000000000000000, -1.000000000000000000 ) ) ;
#258 = CARTESIAN_POINT ( 'NONE',  ( 0.000000000000000000, 0.000000000000000000, 0.000000000000000000 ) ) ;
#259 = EDGE_CURVE ( 'NONE', #178, #170, #236, .T. ) ;
#260 = TOROIDAL_SURFACE ( 'NONE', #256, 0.9500000000000000666, 0.2000000000000000111 ) ;
#261 = ADVANCED_FACE ( 'NONE', ( #64 ), #283, .F. ) ;
#262 = DATE_AND_TIME ( #288, #73 ) ;
#263 = CIRCLE ( 'NONE', #122, 0.7500000000000001110 ) ;
#264 = PERSON_AND_ORGANIZATION ( #18, #16 ) ;
#265 = EDGE_LOOP ( 'NONE', ( #107, #232, #181, #80 ) ) ;
#266 = LINE ( 'NONE', #56, #174 ) ;
#267 = CIRCLE ( 'NONE', #1, 1.500000000000000222 ) ;
#268 = FACE_OUTER_BOUND ( 'NONE', #297, .T. ) ;
#269 = VERTEX_POINT ( 'NONE', #135 ) ;
#270 = AXIS2_PLACEMENT_3D ( 'NONE', #220, #218, #292 ) ;
#271 = PERSON_AND_ORGANIZATION ( #18, #16 ) ;
#272 = DIRECTION ( 'NONE',  ( -0.000000000000000000, -0.000000000000000000, -1.000000000000000000 ) ) ;
#273 = ORIENTED_EDGE ( 'NONE', *, *, #2, .F. ) ;
#274 = DIRECTION ( 'NONE',  ( 1.000000000000000000, 0.000000000000000000, 0.000000000000000000 ) ) ;
#275 = EDGE_CURVE ( 'NONE', #109, #60, #152, .T. ) ;
#276 = FACE_OUTER_BOUND ( 'NONE', #11, .T. ) ;
#277 = CARTESIAN_POINT ( 'NONE',  ( 0.000000000000000000, 0.000000000000000000, 126.5000000000000000 ) ) ;
#278 = FACE_OUTER_BOUND ( 'NONE', #265, .T. ) ;
#279 = ADVANCED_FACE ( 'NONE', ( #268 ), #108, .F. ) ;
#280 = CC_DESIGN_APPROVAL ( #147, ( #291 ) ) ;
#281 = APPROVAL ( #50, 'NEURÈENÝ' ) ;
#282 = PRODUCT_DEFINITION_SHAPE ( 'NONE', 'NONE',  #291 ) ;
#283 = TOROIDAL_SURFACE ( 'NONE', #142, 0.9500000000000000666, 0.2000000000000000111 ) ;
#284 = APPROVAL_DATE_TIME ( #167, #281 ) ;
#285 = AXIS2_PLACEMENT_3D ( 'NONE', #252, #39, #118 ) ;
#286 = EDGE_LOOP ( 'NONE', ( #65, #229, #86, #19 ) ) ;
#287 = AXIS2_PLACEMENT_3D ( 'NONE', #153, #34, #13 ) ;
#288 = CALENDAR_DATE ( 2022, 7, 7 ) ;
#289 = ORIENTED_EDGE ( 'NONE', *, *, #123, .T. ) ;
#290 = DIRECTION ( 'NONE',  ( 0.000000000000000000, 0.000000000000000000, 1.000000000000000000 ) ) ;
#291 = PRODUCT_DEFINITION ( 'NEZNÁMÝ', '', #101, #71 ) ;
#292 = DIRECTION ( 'NONE',  ( -1.000000000000000000, 0.000000000000000000, 0.000000000000000000 ) ) ;
#293 = PLANE ( 'NONE',  #189 ) ;
#294 = DIRECTION ( 'NONE',  ( 1.000000000000000000, 0.000000000000000000, 0.000000000000000000 ) ) ;
#295 = CARTESIAN_POINT ( 'NONE',  ( 0.7500000000000001110, 9.184850993605150903E-17, 1.700000000000007061 ) ) ;
#296 = MANIFOLD_SOLID_BREP ( 'Zaoblit1', #21 ) ;
#297 = EDGE_LOOP ( 'NONE', ( #3, #273 ) ) ;
#298 = AXIS2_PLACEMENT_3D ( 'NONE', #209, #272, #70 ) ;
#299 = CARTESIAN_POINT ( 'NONE',  ( 0.000000000000000000, 0.000000000000000000, 0.000000000000000000 ) ) ;
#300 = VERTEX_POINT ( 'NONE', #199 ) ;
#301 = FACE_OUTER_BOUND ( 'NONE', #286, .T. ) ;
#302 = VERTEX_POINT ( 'NONE', #90 ) ;
#303 = DIRECTION ( 'NONE',  ( 0.000000000000000000, 0.000000000000000000, 1.000000000000000000 ) ) ;
#304 = DIRECTION ( 'NONE',  ( 0.000000000000000000, 0.000000000000000000, -1.000000000000000000 ) ) ;
#305 = CARTESIAN_POINT ( 'NONE',  ( 0.000000000000000000, 0.000000000000000000, 1.500000000000000000 ) ) ;
#306 = CC_DESIGN_PERSON_AND_ORGANIZATION_ASSIGNMENT ( #127, #49, ( #101 ) ) ;
#307 = ADVANCED_FACE ( 'NONE', ( #10 ), #171, .T. ) ;
ENDSEC;
END-ISO-10303-21;
