ISO-10303-21;
HEADER;
FILE_DESCRIPTION (( 'STEP AP203' ),
    '1' );
FILE_NAME ('59a5.STEP',
    '2022-07-07T10:15:58',
    ( '' ),
    ( '' ),
    'SwSTEP 2.0',
    'SolidWorks 2019',
    '' );
FILE_SCHEMA (( 'CONFIG_CONTROL_DESIGN' ));
ENDSEC;

DATA;
#1 = APPROVAL_STATUS ( 'not_yet_approved' ) ;
#2 = EDGE_LOOP ( 'NONE', ( #250, #203 ) ) ;
#3 = DIRECTION ( 'NONE',  ( 0.000000000000000000, 0.000000000000000000, 1.000000000000000000 ) ) ;
#4 = LOCAL_TIME ( 12, 15, 58.00000000000000000, #170 ) ;
#5 = ORIENTED_EDGE ( 'NONE', *, *, #74, .F. ) ;
#6 = DATE_AND_TIME ( #290, #200 ) ;
#7 = CC_DESIGN_PERSON_AND_ORGANIZATION_ASSIGNMENT ( #8, #121, ( #15 ) ) ;
#8 = PERSON_AND_ORGANIZATION ( #73, #79 ) ;
#9 = APPLICATION_PROTOCOL_DEFINITION ( 'international standard', 'config_control_design', 1994, #197 ) ;
#10 = AXIS2_PLACEMENT_3D ( 'NONE', #12, #14, #247 ) ;
#11 = CYLINDRICAL_SURFACE ( 'NONE', #10, 2.750000000000000000 ) ;
#12 = CARTESIAN_POINT ( 'NONE',  ( 0.000000000000000000, 0.000000000000000000, 163.0000000000000000 ) ) ;
#13 = AXIS2_PLACEMENT_3D ( 'NONE', #234, #28, #180 ) ;
#14 = DIRECTION ( 'NONE',  ( -0.000000000000000000, -0.000000000000000000, -1.000000000000000000 ) ) ;
#15 = PRODUCT_DEFINITION ( 'NEZNÁMÝ', '', #30, #191 ) ;
#16 = DIRECTION ( 'NONE',  ( -1.000000000000000000, 0.000000000000000000, 0.000000000000000000 ) ) ;
#17 = TOROIDAL_SURFACE ( 'NONE', #37, 2.949999999999999734, 0.2000000000000000111 ) ;
#18 = CARTESIAN_POINT ( 'NONE',  ( 5.000000000000000000, 6.123233995736766282E-16, 3.000000000000000000 ) ) ;
#19 = ADVANCED_FACE ( 'NONE', ( #199 ), #305, .T. ) ;
#20 = DIRECTION ( 'NONE',  ( -0.000000000000000000, -0.000000000000000000, -1.000000000000000000 ) ) ;
#21 = EDGE_LOOP ( 'NONE', ( #118, #274, #53, #299 ) ) ;
#22 = CARTESIAN_POINT ( 'NONE',  ( -2.949999999999999734, 3.612708057484692097E-16, 3.000000000000004441 ) ) ;
#23 = EDGE_CURVE ( 'NONE', #86, #189, #277, .T. ) ;
#24 = CARTESIAN_POINT ( 'NONE',  ( 0.000000000000000000, 0.000000000000000000, 163.0000000000000000 ) ) ;
#25 = DIRECTION ( 'NONE',  ( 1.000000000000000000, 0.000000000000000000, 0.000000000000000000 ) ) ;
#26 = CARTESIAN_POINT ( 'NONE',  ( 0.000000000000000000, 0.000000000000000000, 3.200000000000008171 ) ) ;
#27 = EDGE_LOOP ( 'NONE', ( #42, #70 ) ) ;
#28 = DIRECTION ( 'NONE',  ( 0.000000000000000000, 0.000000000000000000, 1.000000000000000000 ) ) ;
#29 = COORDINATED_UNIVERSAL_TIME_OFFSET ( 1, 0, .AHEAD. ) ;
#30 = PRODUCT_DEFINITION_FORMATION_WITH_SPECIFIED_SOURCE ( 'LIBOVOLNÝ', '', #60, .NOT_KNOWN. ) ;
#31 = APPROVAL_DATE_TIME ( #101, #219 ) ;
#32 = DATE_AND_TIME ( #148, #240 ) ;
#33 = EDGE_CURVE ( 'NONE', #179, #287, #104, .T. ) ;
#34 = CC_DESIGN_APPROVAL ( #249, ( #30 ) ) ;
#35 = DIRECTION ( 'NONE',  ( 1.000000000000000000, 0.000000000000000000, 0.000000000000000000 ) ) ;
#36 = CARTESIAN_POINT ( 'NONE',  ( -5.000000000000000000, 0.000000000000000000, 3.000000000000000000 ) ) ;
#37 = AXIS2_PLACEMENT_3D ( 'NONE', #172, #127, #293 ) ;
#38 = ORIENTED_EDGE ( 'NONE', *, *, #119, .F. ) ;
#39 = EDGE_CURVE ( 'NONE', #129, #87, #40, .T. ) ;
#40 = LINE ( 'NONE', #230, #61 ) ;
#41 = AXIS2_PLACEMENT_3D ( 'NONE', #159, #106, #89 ) ;
#42 = ORIENTED_EDGE ( 'NONE', *, *, #154, .T. ) ;
#43 = DIRECTION ( 'NONE',  ( 0.000000000000000000, 0.000000000000000000, 1.000000000000000000 ) ) ;
#44 = VERTEX_POINT ( 'NONE', #18 ) ;
#45 = CARTESIAN_POINT ( 'NONE',  ( -5.000000000000000000, 0.000000000000000000, 0.000000000000000000 ) ) ;
#46 = EDGE_LOOP ( 'NONE', ( #233, #302 ) ) ;
#47 = ORIENTED_EDGE ( 'NONE', *, *, #178, .T. ) ;
#48 = FACE_OUTER_BOUND ( 'NONE', #289, .T. ) ;
#49 = APPROVAL_PERSON_ORGANIZATION ( #190, #249, #261 ) ;
#50 = ORIENTED_EDGE ( 'NONE', *, *, #160, .F. ) ;
#51 = FACE_OUTER_BOUND ( 'NONE', #227, .T. ) ;
#52 = PERSON_AND_ORGANIZATION_ROLE ( 'creator' ) ;
#53 = ORIENTED_EDGE ( 'NONE', *, *, #122, .T. ) ;
#54 = PERSON_AND_ORGANIZATION_ROLE ( 'design_supplier' ) ;
#55 = APPROVAL_ROLE ( '' ) ;
#56 = ADVANCED_FACE ( 'NONE', ( #201 ), #157, .F. ) ;
#57 = CC_DESIGN_APPROVAL ( #219, ( #15 ) ) ;
#58 = CARTESIAN_POINT ( 'NONE',  ( 2.750000000000000000, 3.367778697655221012E-16, 163.0000000000000000 ) ) ;
#59 = CARTESIAN_POINT ( 'NONE',  ( 5.000000000000000000, 6.123233995736766282E-16, 3.000000000000000000 ) ) ;
#60 = PRODUCT ( '59a5', '59a5', '', ( #222 ) ) ;
#61 = VECTOR ( 'NONE', #130, 1000.000000000000000 ) ;
#62 = ORIENTED_EDGE ( 'NONE', *, *, #151, .F. ) ;
#63 = DIRECTION ( 'NONE',  ( -0.000000000000000000, -0.000000000000000000, -1.000000000000000000 ) ) ;
#64 = ORIENTED_EDGE ( 'NONE', *, *, #84, .F. ) ;
#65 = CARTESIAN_POINT ( 'NONE',  ( 2.750000000000000000, 3.367778697655221012E-16, 3.200000000000008171 ) ) ;
#66 = AXIS2_PLACEMENT_3D ( 'NONE', #278, #67, #254 ) ;
#67 = DIRECTION ( 'NONE',  ( 0.000000000000000000, 0.000000000000000000, 1.000000000000000000 ) ) ;
#68 = CARTESIAN_POINT ( 'NONE',  ( 0.000000000000000000, 0.000000000000000000, 3.200000000000008171 ) ) ;
#69 = CC_DESIGN_PERSON_AND_ORGANIZATION_ASSIGNMENT ( #262, #52, ( #30 ) ) ;
#70 = ORIENTED_EDGE ( 'NONE', *, *, #74, .T. ) ;
#71 = DIRECTION ( 'NONE',  ( 0.000000000000000000, 0.000000000000000000, -1.000000000000000000 ) ) ;
#72 = AXIS2_PLACEMENT_3D ( 'NONE', #255, #20, #283 ) ;
#73 = PERSON ( 'NEURÈENÝ', 'NEURÈENÝ', 'NEURÈENÝ', ('NEURÈENÝ'), ('NEURÈENÝ'), ('NEURÈENÝ') ) ;
#74 = EDGE_CURVE ( 'NONE', #242, #129, #216, .T. ) ;
#75 = SHAPE_DEFINITION_REPRESENTATION ( #272, #141 ) ;
#76 = EDGE_LOOP ( 'NONE', ( #256, #259, #110, #50 ) ) ;
#77 = COORDINATED_UNIVERSAL_TIME_OFFSET ( 1, 0, .AHEAD. ) ;
#78 = ADVANCED_FACE ( 'NONE', ( #93, #184 ), #306, .T. ) ;
#79 = ORGANIZATION ( 'NEURÈENÝ', 'NEURÈENÝ', '' ) ;
#80 = UNCERTAINTY_MEASURE_WITH_UNIT (LENGTH_MEASURE( 1.000000000000000082E-05 ), #82, 'distance_accuracy_value', 'NONE');
#81 = DATE_AND_TIME ( #146, #4 ) ;
#82 =( LENGTH_UNIT ( ) NAMED_UNIT ( * ) SI_UNIT ( .MILLI., .METRE. ) );
#83 = CARTESIAN_POINT ( 'NONE',  ( 0.000000000000000000, 0.000000000000000000, 0.000000000000000000 ) ) ;
#84 = EDGE_CURVE ( 'NONE', #87, #164, #279, .T. ) ;
#85 = AXIS2_PLACEMENT_3D ( 'NONE', #161, #43, #114 ) ;
#86 = VERTEX_POINT ( 'NONE', #202 ) ;
#87 = VERTEX_POINT ( 'NONE', #257 ) ;
#88 = DIRECTION ( 'NONE',  ( 1.000000000000000000, 0.000000000000000000, 0.000000000000000000 ) ) ;
#89 = DIRECTION ( 'NONE',  ( 1.000000000000000000, 0.000000000000000000, 0.000000000000000000 ) ) ;
#90 = DIRECTION ( 'NONE',  ( 0.000000000000000000, 0.000000000000000000, 1.000000000000000000 ) ) ;
#91 = AXIS2_PLACEMENT_3D ( 'NONE', #163, #307, #280 ) ;
#92 = CIRCLE ( 'NONE', #266, 2.750000000000000000 ) ;
#93 = FACE_BOUND ( 'NONE', #281, .T. ) ;
#94 = CARTESIAN_POINT ( 'NONE',  ( 0.000000000000000000, 0.000000000000000000, 3.000000000000000000 ) ) ;
#95 = CYLINDRICAL_SURFACE ( 'NONE', #72, 2.750000000000000000 ) ;
#96 = PERSON_AND_ORGANIZATION ( #73, #79 ) ;
#97 = EDGE_CURVE ( 'NONE', #87, #189, #153, .T. ) ;
#98 = AXIS2_PLACEMENT_3D ( 'NONE', #185, #253, #182 ) ;
#99 = CC_DESIGN_PERSON_AND_ORGANIZATION_ASSIGNMENT ( #286, #54, ( #30 ) ) ;
#100 = MANIFOLD_SOLID_BREP ( 'Zaoblit1', #238 ) ;
#101 = DATE_AND_TIME ( #167, #175 ) ;
#102 = AXIS2_PLACEMENT_3D ( 'NONE', #275, #156, #300 ) ;
#103 = DIRECTION ( 'NONE',  ( 1.000000000000000000, 0.000000000000000000, 0.000000000000000000 ) ) ;
#104 = CIRCLE ( 'NONE', #102, 5.000000000000000000 ) ;
#105 = DIRECTION ( 'NONE',  ( 0.000000000000000000, 0.000000000000000000, 1.000000000000000000 ) ) ;
#106 = DIRECTION ( 'NONE',  ( -0.000000000000000000, -0.000000000000000000, -1.000000000000000000 ) ) ;
#107 = ADVANCED_FACE ( 'NONE', ( #51 ), #95, .T. ) ;
#108 = ORIENTED_EDGE ( 'NONE', *, *, #23, .T. ) ;
#109 = DIRECTION ( 'NONE',  ( -1.000000000000000000, 1.224646799147353207E-16, 0.000000000000000000 ) ) ;
#110 = ORIENTED_EDGE ( 'NONE', *, *, #119, .T. ) ;
#111 = CC_DESIGN_DATE_AND_TIME_ASSIGNMENT ( #81, #211, ( #15 ) ) ;
#112 = FACE_OUTER_BOUND ( 'NONE', #27, .T. ) ;
#113 = DIRECTION ( 'NONE',  ( 0.000000000000000000, 0.000000000000000000, 1.000000000000000000 ) ) ;
#114 = DIRECTION ( 'NONE',  ( 1.000000000000000000, 0.000000000000000000, 0.000000000000000000 ) ) ;
#115 = CC_DESIGN_SECURITY_CLASSIFICATION ( #198, ( #30 ) ) ;
#116 = DIRECTION ( 'NONE',  ( 0.000000000000000000, 0.000000000000000000, 1.000000000000000000 ) ) ;
#117 = DIRECTION ( 'NONE',  ( 1.000000000000000000, 0.000000000000000000, 0.000000000000000000 ) ) ;
#118 = ORIENTED_EDGE ( 'NONE', *, *, #239, .F. ) ;
#119 = EDGE_CURVE ( 'NONE', #164, #86, #285, .T. ) ;
#120 = CIRCLE ( 'NONE', #244, 2.949999999999999734 ) ;
#121 = PERSON_AND_ORGANIZATION_ROLE ( 'creator' ) ;
#122 = EDGE_CURVE ( 'NONE', #287, #179, #131, .T. ) ;
#123 = CARTESIAN_POINT ( 'NONE',  ( 0.000000000000000000, 0.000000000000000000, 3.000000000000000000 ) ) ;
#124 = CIRCLE ( 'NONE', #13, 2.750000000000000000 ) ;
#125 = CARTESIAN_POINT ( 'NONE',  ( 5.000000000000000000, 6.123233995736766282E-16, 0.000000000000000000 ) ) ;
#126 = CARTESIAN_POINT ( 'NONE',  ( 2.750000000000000000, 3.367778697655221012E-16, 163.0000000000000000 ) ) ;
#127 = DIRECTION ( 'NONE',  ( 0.000000000000000000, 0.000000000000000000, 1.000000000000000000 ) ) ;
#128 = AXIS2_PLACEMENT_3D ( 'NONE', #260, #3, #88 ) ;
#129 = VERTEX_POINT ( 'NONE', #165 ) ;
#130 = DIRECTION ( 'NONE',  ( -0.000000000000000000, -0.000000000000000000, -1.000000000000000000 ) ) ;
#131 = CIRCLE ( 'NONE', #224, 5.000000000000000000 ) ;
#132 = EDGE_LOOP ( 'NONE', ( #144, #162, #176, #232 ) ) ;
#133 = LINE ( 'NONE', #137, #169 ) ;
#134 = ORIENTED_EDGE ( 'NONE', *, *, #33, .T. ) ;
#135 = DIRECTION ( 'NONE',  ( 0.000000000000000000, 0.000000000000000000, 1.000000000000000000 ) ) ;
#136 = ORIENTED_EDGE ( 'NONE', *, *, #214, .T. ) ;
#137 = CARTESIAN_POINT ( 'NONE',  ( -5.000000000000000000, 0.000000000000000000, 3.000000000000000000 ) ) ;
#138 = TOROIDAL_SURFACE ( 'NONE', #263, 2.949999999999999734, 0.2000000000000000111 ) ;
#139 = ORIENTED_EDGE ( 'NONE', *, *, #268, .T. ) ;
#140 = CARTESIAN_POINT ( 'NONE',  ( 2.949999999999999734, 0.000000000000000000, 3.200000000000008171 ) ) ;
#141 = ADVANCED_BREP_SHAPE_REPRESENTATION ( '59a5', ( #100, #304 ), #187 ) ;
#142 = APPROVAL_ROLE ( '' ) ;
#143 = PERSON_AND_ORGANIZATION ( #73, #79 ) ;
#144 = ORIENTED_EDGE ( 'NONE', *, *, #268, .F. ) ;
#145 = AXIS2_PLACEMENT_3D ( 'NONE', #207, #186, #109 ) ;
#146 = CALENDAR_DATE ( 2022, 7, 7 ) ;
#147 = ORIENTED_EDGE ( 'NONE', *, *, #160, .T. ) ;
#148 = CALENDAR_DATE ( 2022, 7, 7 ) ;
#149 = CC_DESIGN_PERSON_AND_ORGANIZATION_ASSIGNMENT ( #292, #215, ( #198 ) ) ;
#150 = LINE ( 'NONE', #58, #258 ) ;
#151 = EDGE_CURVE ( 'NONE', #251, #44, #295, .T. ) ;
#152 = AXIS2_PLACEMENT_3D ( 'NONE', #140, #301, #71 ) ;
#153 = CIRCLE ( 'NONE', #145, 0.2000000000000000944 ) ;
#154 = EDGE_CURVE ( 'NONE', #129, #242, #124, .T. ) ;
#155 = ORIENTED_EDGE ( 'NONE', *, *, #39, .F. ) ;
#156 = DIRECTION ( 'NONE',  ( 0.000000000000000000, 0.000000000000000000, 1.000000000000000000 ) ) ;
#157 = PLANE ( 'NONE',  #66 ) ;
#158 = CYLINDRICAL_SURFACE ( 'NONE', #98, 5.000000000000000000 ) ;
#159 = CARTESIAN_POINT ( 'NONE',  ( 0.000000000000000000, 0.000000000000000000, 3.000000000000000000 ) ) ;
#160 = EDGE_CURVE ( 'NONE', #189, #86, #120, .T. ) ;
#161 = CARTESIAN_POINT ( 'NONE',  ( 0.000000000000000000, 0.000000000000000000, 3.200000000000008171 ) ) ;
#162 = ORIENTED_EDGE ( 'NONE', *, *, #154, .F. ) ;
#163 = CARTESIAN_POINT ( 'NONE',  ( 0.000000000000000000, 0.000000000000000000, 3.000000000000000000 ) ) ;
#164 = VERTEX_POINT ( 'NONE', #65 ) ;
#165 = CARTESIAN_POINT ( 'NONE',  ( -2.750000000000000000, 0.000000000000000000, 163.0000000000000000 ) ) ;
#166 = ADVANCED_FACE ( 'NONE', ( #48 ), #158, .T. ) ;
#167 = CALENDAR_DATE ( 2022, 7, 7 ) ;
#168 = APPROVAL_STATUS ( 'not_yet_approved' ) ;
#169 = VECTOR ( 'NONE', #229, 1000.000000000000000 ) ;
#170 = COORDINATED_UNIVERSAL_TIME_OFFSET ( 1, 0, .AHEAD. ) ;
#171 = DIRECTION ( 'NONE',  ( -0.000000000000000000, -0.000000000000000000, -1.000000000000000000 ) ) ;
#172 = CARTESIAN_POINT ( 'NONE',  ( 0.000000000000000000, 0.000000000000000000, 3.200000000000008171 ) ) ;
#173 = APPROVAL_PERSON_ORGANIZATION ( #96, #219, #142 ) ;
#174 = APPLICATION_PROTOCOL_DEFINITION ( 'international standard', 'config_control_design', 1994, #177 ) ;
#175 = LOCAL_TIME ( 12, 15, 58.00000000000000000, #29 ) ;
#176 = ORIENTED_EDGE ( 'NONE', *, *, #39, .T. ) ;
#177 = APPLICATION_CONTEXT ( 'configuration controlled 3d designs of mechanical parts and assemblies' ) ;
#178 = EDGE_CURVE ( 'NONE', #251, #179, #133, .T. ) ;
#179 = VERTEX_POINT ( 'NONE', #45 ) ;
#180 = DIRECTION ( 'NONE',  ( 1.000000000000000000, 0.000000000000000000, 0.000000000000000000 ) ) ;
#181 = CARTESIAN_POINT ( 'NONE',  ( 0.000000000000000000, 0.000000000000000000, 3.000000000000000000 ) ) ;
#182 = DIRECTION ( 'NONE',  ( -1.000000000000000000, 0.000000000000000000, 0.000000000000000000 ) ) ;
#183 = CIRCLE ( 'NONE', #291, 5.000000000000000000 ) ;
#184 = FACE_OUTER_BOUND ( 'NONE', #2, .T. ) ;
#185 = CARTESIAN_POINT ( 'NONE',  ( 0.000000000000000000, 0.000000000000000000, 3.000000000000000000 ) ) ;
#186 = DIRECTION ( 'NONE',  ( 1.224646799147353207E-16, 1.000000000000000000, -0.000000000000000000 ) ) ;
#187 =( GEOMETRIC_REPRESENTATION_CONTEXT ( 3 ) GLOBAL_UNCERTAINTY_ASSIGNED_CONTEXT ( ( #80 ) ) GLOBAL_UNIT_ASSIGNED_CONTEXT ( ( #82, #269, #267 ) ) REPRESENTATION_CONTEXT ( 'NONE', 'WORKASPACE' ) );
#188 = DATE_TIME_ROLE ( 'classification_date' ) ;
#189 = VERTEX_POINT ( 'NONE', #22 ) ;
#190 = PERSON_AND_ORGANIZATION ( #73, #79 ) ;
#191 = DESIGN_CONTEXT ( 'detailed design', #197, 'design' ) ;
#192 = LOCAL_TIME ( 12, 15, 58.00000000000000000, #77 ) ;
#193 = SECURITY_CLASSIFICATION_LEVEL ( 'unclassified' ) ;
#194 = ADVANCED_FACE ( 'NONE', ( #112 ), #231, .T. ) ;
#195 = DIRECTION ( 'NONE',  ( -0.000000000000000000, -0.000000000000000000, -1.000000000000000000 ) ) ;
#196 = APPROVAL ( #1, 'NEURÈENÝ' ) ;
#197 = APPLICATION_CONTEXT ( 'configuration controlled 3d designs of mechanical parts and assemblies' ) ;
#198 = SECURITY_CLASSIFICATION ( '', '', #193 ) ;
#199 = FACE_OUTER_BOUND ( 'NONE', #21, .T. ) ;
#200 = LOCAL_TIME ( 12, 15, 58.00000000000000000, #264 ) ;
#201 = FACE_OUTER_BOUND ( 'NONE', #46, .T. ) ;
#202 = CARTESIAN_POINT ( 'NONE',  ( 2.949999999999999734, 0.000000000000000000, 3.000000000000004441 ) ) ;
#203 = ORIENTED_EDGE ( 'NONE', *, *, #239, .T. ) ;
#204 = DIRECTION ( 'NONE',  ( 1.000000000000000000, 0.000000000000000000, -0.000000000000000000 ) ) ;
#205 = DIRECTION ( 'NONE',  ( 1.000000000000000000, 0.000000000000000000, 0.000000000000000000 ) ) ;
#206 = APPROVAL_PERSON_ORGANIZATION ( #143, #196, #55 ) ;
#207 = CARTESIAN_POINT ( 'NONE',  ( -2.949999999999999734, 3.612708057484692097E-16, 3.200000000000008171 ) ) ;
#208 = CARTESIAN_POINT ( 'NONE',  ( 0.000000000000000000, 0.000000000000000000, 163.0000000000000000 ) ) ;
#209 = CALENDAR_DATE ( 2022, 7, 7 ) ;
#210 = CARTESIAN_POINT ( 'NONE',  ( 0.000000000000000000, 0.000000000000000000, 0.000000000000000000 ) ) ;
#211 = DATE_TIME_ROLE ( 'creation_date' ) ;
#212 = EDGE_LOOP ( 'NONE', ( #64, #226, #248, #38 ) ) ;
#213 = CC_DESIGN_APPROVAL ( #196, ( #198 ) ) ;
#214 = EDGE_CURVE ( 'NONE', #164, #87, #92, .T. ) ;
#215 = PERSON_AND_ORGANIZATION_ROLE ( 'classification_officer' ) ;
#216 = CIRCLE ( 'NONE', #273, 2.750000000000000000 ) ;
#217 = FACE_OUTER_BOUND ( 'NONE', #76, .T. ) ;
#218 = DIRECTION ( 'NONE',  ( 0.000000000000000000, 0.000000000000000000, 1.000000000000000000 ) ) ;
#219 = APPROVAL ( #168, 'NEURÈENÝ' ) ;
#220 = LINE ( 'NONE', #59, #298 ) ;
#221 = CC_DESIGN_PERSON_AND_ORGANIZATION_ASSIGNMENT ( #297, #288, ( #60 ) ) ;
#222 = MECHANICAL_CONTEXT ( 'NONE', #177, 'mechanical' ) ;
#223 = AXIS2_PLACEMENT_3D ( 'NONE', #208, #116, #204 ) ;
#224 = AXIS2_PLACEMENT_3D ( 'NONE', #210, #90, #303 ) ;
#225 = ADVANCED_FACE ( 'NONE', ( #282 ), #138, .F. ) ;
#226 = ORIENTED_EDGE ( 'NONE', *, *, #97, .T. ) ;
#227 = EDGE_LOOP ( 'NONE', ( #5, #139, #136, #155 ) ) ;
#228 = ORIENTED_EDGE ( 'NONE', *, *, #270, .F. ) ;
#229 = DIRECTION ( 'NONE',  ( -0.000000000000000000, -0.000000000000000000, -1.000000000000000000 ) ) ;
#230 = CARTESIAN_POINT ( 'NONE',  ( -2.750000000000000000, 0.000000000000000000, 163.0000000000000000 ) ) ;
#231 = PLANE ( 'NONE',  #223 ) ;
#232 = ORIENTED_EDGE ( 'NONE', *, *, #84, .T. ) ;
#233 = ORIENTED_EDGE ( 'NONE', *, *, #33, .F. ) ;
#234 = CARTESIAN_POINT ( 'NONE',  ( 0.000000000000000000, 0.000000000000000000, 163.0000000000000000 ) ) ;
#235 = PRODUCT_RELATED_PRODUCT_CATEGORY ( 'detail', '', ( #60 ) ) ;
#236 = APPROVAL_DATE_TIME ( #32, #196 ) ;
#237 = COORDINATED_UNIVERSAL_TIME_OFFSET ( 1, 0, .AHEAD. ) ;
#238 = CLOSED_SHELL ( 'NONE', ( #225, #107, #19, #166, #78, #56, #246, #194, #284 ) ) ;
#239 = EDGE_CURVE ( 'NONE', #44, #251, #183, .T. ) ;
#240 = LOCAL_TIME ( 12, 15, 58.00000000000000000, #237 ) ;
#241 = DATE_AND_TIME ( #209, #192 ) ;
#242 = VERTEX_POINT ( 'NONE', #126 ) ;
#243 = APPROVAL_STATUS ( 'not_yet_approved' ) ;
#244 = AXIS2_PLACEMENT_3D ( 'NONE', #94, #276, #117 ) ;
#245 = FACE_OUTER_BOUND ( 'NONE', #132, .T. ) ;
#246 = ADVANCED_FACE ( 'NONE', ( #245 ), #11, .T. ) ;
#247 = DIRECTION ( 'NONE',  ( -1.000000000000000000, 0.000000000000000000, 0.000000000000000000 ) ) ;
#248 = ORIENTED_EDGE ( 'NONE', *, *, #23, .F. ) ;
#249 = APPROVAL ( #243, 'NEURÈENÝ' ) ;
#250 = ORIENTED_EDGE ( 'NONE', *, *, #151, .T. ) ;
#251 = VERTEX_POINT ( 'NONE', #36 ) ;
#252 = AXIS2_PLACEMENT_3D ( 'NONE', #181, #63, #16 ) ;
#253 = DIRECTION ( 'NONE',  ( -0.000000000000000000, -0.000000000000000000, -1.000000000000000000 ) ) ;
#254 = DIRECTION ( 'NONE',  ( 1.000000000000000000, 0.000000000000000000, -0.000000000000000000 ) ) ;
#255 = CARTESIAN_POINT ( 'NONE',  ( 0.000000000000000000, 0.000000000000000000, 163.0000000000000000 ) ) ;
#256 = ORIENTED_EDGE ( 'NONE', *, *, #97, .F. ) ;
#257 = CARTESIAN_POINT ( 'NONE',  ( -2.750000000000000000, 0.000000000000000000, 3.200000000000008171 ) ) ;
#258 = VECTOR ( 'NONE', #171, 1000.000000000000000 ) ;
#259 = ORIENTED_EDGE ( 'NONE', *, *, #214, .F. ) ;
#260 = CARTESIAN_POINT ( 'NONE',  ( 0.000000000000000000, 0.000000000000000000, 3.000000000000000000 ) ) ;
#261 = APPROVAL_ROLE ( '' ) ;
#262 = PERSON_AND_ORGANIZATION ( #73, #79 ) ;
#263 = AXIS2_PLACEMENT_3D ( 'NONE', #26, #105, #103 ) ;
#264 = COORDINATED_UNIVERSAL_TIME_OFFSET ( 1, 0, .AHEAD. ) ;
#265 = APPROVAL_DATE_TIME ( #241, #249 ) ;
#266 = AXIS2_PLACEMENT_3D ( 'NONE', #68, #135, #25 ) ;
#267 =( NAMED_UNIT ( * ) SI_UNIT ( $, .STERADIAN. ) SOLID_ANGLE_UNIT ( ) );
#268 = EDGE_CURVE ( 'NONE', #242, #164, #150, .T. ) ;
#269 =( NAMED_UNIT ( * ) PLANE_ANGLE_UNIT ( ) SI_UNIT ( $, .RADIAN. ) );
#270 = EDGE_CURVE ( 'NONE', #44, #287, #220, .T. ) ;
#271 = DIRECTION ( 'NONE',  ( 0.000000000000000000, 0.000000000000000000, 1.000000000000000000 ) ) ;
#272 = PRODUCT_DEFINITION_SHAPE ( 'NONE', 'NONE',  #15 ) ;
#273 = AXIS2_PLACEMENT_3D ( 'NONE', #24, #113, #205 ) ;
#274 = ORIENTED_EDGE ( 'NONE', *, *, #270, .T. ) ;
#275 = CARTESIAN_POINT ( 'NONE',  ( 0.000000000000000000, 0.000000000000000000, 0.000000000000000000 ) ) ;
#276 = DIRECTION ( 'NONE',  ( -0.000000000000000000, -0.000000000000000000, -1.000000000000000000 ) ) ;
#277 = CIRCLE ( 'NONE', #41, 2.949999999999999734 ) ;
#278 = CARTESIAN_POINT ( 'NONE',  ( 0.000000000000000000, 0.000000000000000000, 0.000000000000000000 ) ) ;
#279 = CIRCLE ( 'NONE', #85, 2.750000000000000000 ) ;
#280 = DIRECTION ( 'NONE',  ( 1.000000000000000000, 0.000000000000000000, -0.000000000000000000 ) ) ;
#281 = EDGE_LOOP ( 'NONE', ( #108, #147 ) ) ;
#282 = FACE_OUTER_BOUND ( 'NONE', #212, .T. ) ;
#283 = DIRECTION ( 'NONE',  ( -1.000000000000000000, 0.000000000000000000, 0.000000000000000000 ) ) ;
#284 = ADVANCED_FACE ( 'NONE', ( #217 ), #17, .F. ) ;
#285 = CIRCLE ( 'NONE', #152, 0.2000000000000000944 ) ;
#286 = PERSON_AND_ORGANIZATION ( #73, #79 ) ;
#287 = VERTEX_POINT ( 'NONE', #125 ) ;
#288 = PERSON_AND_ORGANIZATION_ROLE ( 'design_owner' ) ;
#289 = EDGE_LOOP ( 'NONE', ( #228, #62, #47, #134 ) ) ;
#290 = CALENDAR_DATE ( 2022, 7, 7 ) ;
#291 = AXIS2_PLACEMENT_3D ( 'NONE', #123, #218, #35 ) ;
#292 = PERSON_AND_ORGANIZATION ( #73, #79 ) ;
#293 = DIRECTION ( 'NONE',  ( 1.000000000000000000, 0.000000000000000000, 0.000000000000000000 ) ) ;
#294 = CC_DESIGN_DATE_AND_TIME_ASSIGNMENT ( #6, #188, ( #198 ) ) ;
#295 = CIRCLE ( 'NONE', #128, 5.000000000000000000 ) ;
#296 = DIRECTION ( 'NONE',  ( 1.000000000000000000, 0.000000000000000000, 0.000000000000000000 ) ) ;
#297 = PERSON_AND_ORGANIZATION ( #73, #79 ) ;
#298 = VECTOR ( 'NONE', #195, 1000.000000000000000 ) ;
#299 = ORIENTED_EDGE ( 'NONE', *, *, #178, .F. ) ;
#300 = DIRECTION ( 'NONE',  ( 1.000000000000000000, 0.000000000000000000, 0.000000000000000000 ) ) ;
#301 = DIRECTION ( 'NONE',  ( 0.000000000000000000, -1.000000000000000000, 0.000000000000000000 ) ) ;
#302 = ORIENTED_EDGE ( 'NONE', *, *, #122, .F. ) ;
#303 = DIRECTION ( 'NONE',  ( 1.000000000000000000, 0.000000000000000000, 0.000000000000000000 ) ) ;
#304 = AXIS2_PLACEMENT_3D ( 'NONE', #83, #271, #296 ) ;
#305 = CYLINDRICAL_SURFACE ( 'NONE', #252, 5.000000000000000000 ) ;
#306 = PLANE ( 'NONE',  #91 ) ;
#307 = DIRECTION ( 'NONE',  ( 0.000000000000000000, 0.000000000000000000, 1.000000000000000000 ) ) ;
ENDSEC;
END-ISO-10303-21;
