ISO-10303-21;
HEADER;
FILE_DESCRIPTION (( 'STEP AP203' ),
    '1' );
FILE_NAME ('e48d.STEP',
    '2022-07-07T10:37:02',
    ( '' ),
    ( '' ),
    'SwSTEP 2.0',
    'SolidWorks 2019',
    '' );
FILE_SCHEMA (( 'CONFIG_CONTROL_DESIGN' ));
ENDSEC;

DATA;
#1 = EDGE_CURVE ( 'NONE', #180, #295, #178, .T. ) ;
#2 = DIRECTION ( 'NONE',  ( 1.000000000000000000, 0.000000000000000000, 0.000000000000000000 ) ) ;
#3 = CIRCLE ( 'NONE', #57, 0.9000000000000000222 ) ;
#4 = LOCAL_TIME ( 12, 37, 2.000000000000000000, #201 ) ;
#5 = CARTESIAN_POINT ( 'NONE',  ( -0.9000000000000000222, 0.000000000000000000, 161.5000000000000000 ) ) ;
#6 = CARTESIAN_POINT ( 'NONE',  ( 0.000000000000000000, 0.000000000000000000, 1.700000000000007061 ) ) ;
#7 = DATE_AND_TIME ( #103, #9 ) ;
#8 = ORIENTED_EDGE ( 'NONE', *, *, #10, .F. ) ;
#9 = LOCAL_TIME ( 12, 37, 2.000000000000000000, #58 ) ;
#10 = EDGE_CURVE ( 'NONE', #42, #233, #301, .T. ) ;
#11 = PERSON_AND_ORGANIZATION_ROLE ( 'design_supplier' ) ;
#12 = AXIS2_PLACEMENT_3D ( 'NONE', #163, #188, #138 ) ;
#13 = DIRECTION ( 'NONE',  ( 0.000000000000000000, 0.000000000000000000, 1.000000000000000000 ) ) ;
#14 = ORIENTED_EDGE ( 'NONE', *, *, #27, .F. ) ;
#15 = DIRECTION ( 'NONE',  ( 0.000000000000000000, 0.000000000000000000, 1.000000000000000000 ) ) ;
#16 = APPLICATION_CONTEXT ( 'configuration controlled 3d designs of mechanical parts and assemblies' ) ;
#17 = DIRECTION ( 'NONE',  ( 0.000000000000000000, 0.000000000000000000, 1.000000000000000000 ) ) ;
#18 = VECTOR ( 'NONE', #229, 1000.000000000000000 ) ;
#19 = AXIS2_PLACEMENT_3D ( 'NONE', #235, #147, #264 ) ;
#20 = FACE_OUTER_BOUND ( 'NONE', #139, .T. ) ;
#21 = PRODUCT_DEFINITION ( 'NEZNÁMÝ', '', #260, #63 ) ;
#22 = DIRECTION ( 'NONE',  ( 0.000000000000000000, 0.000000000000000000, -1.000000000000000000 ) ) ;
#23 = FACE_OUTER_BOUND ( 'NONE', #34, .T. ) ;
#24 = FACE_BOUND ( 'NONE', #87, .T. ) ;
#25 = VECTOR ( 'NONE', #123, 1000.000000000000000 ) ;
#26 = CARTESIAN_POINT ( 'NONE',  ( 0.000000000000000000, 0.000000000000000000, 1.500000000000000000 ) ) ;
#27 = EDGE_CURVE ( 'NONE', #206, #183, #112, .T. ) ;
#28 = DIRECTION ( 'NONE',  ( -0.000000000000000000, -0.000000000000000000, -1.000000000000000000 ) ) ;
#29 = COORDINATED_UNIVERSAL_TIME_OFFSET ( 1, 0, .AHEAD. ) ;
#30 = MANIFOLD_SOLID_BREP ( 'Zaoblit1', #56 ) ;
#31 = AXIS2_PLACEMENT_3D ( 'NONE', #278, #277, #189 ) ;
#32 = APPROVAL_ROLE ( '' ) ;
#33 =( NAMED_UNIT ( * ) SI_UNIT ( $, .STERADIAN. ) SOLID_ANGLE_UNIT ( ) );
#34 = EDGE_LOOP ( 'NONE', ( #8, #299, #274, #90 ) ) ;
#35 = PERSON_AND_ORGANIZATION_ROLE ( 'creator' ) ;
#36 = EDGE_LOOP ( 'NONE', ( #78, #245 ) ) ;
#37 = AXIS2_PLACEMENT_3D ( 'NONE', #284, #70, #170 ) ;
#38 = PLANE ( 'NONE',  #196 ) ;
#39 = DIRECTION ( 'NONE',  ( 1.000000000000000000, 0.000000000000000000, -0.000000000000000000 ) ) ;
#40 = EDGE_LOOP ( 'NONE', ( #14, #249, #226, #305 ) ) ;
#41 = CC_DESIGN_SECURITY_CLASSIFICATION ( #230, ( #260 ) ) ;
#42 = VERTEX_POINT ( 'NONE', #161 ) ;
#43 = FACE_OUTER_BOUND ( 'NONE', #36, .T. ) ;
#44 = FACE_OUTER_BOUND ( 'NONE', #59, .T. ) ;
#45 = CARTESIAN_POINT ( 'NONE',  ( 0.000000000000000000, 0.000000000000000000, 1.700000000000007061 ) ) ;
#46 = LOCAL_TIME ( 12, 37, 2.000000000000000000, #29 ) ;
#47 = DIRECTION ( 'NONE',  ( 0.000000000000000000, 0.000000000000000000, 1.000000000000000000 ) ) ;
#48 = EDGE_CURVE ( 'NONE', #152, #119, #296, .T. ) ;
#49 = DIRECTION ( 'NONE',  ( 1.000000000000000000, 0.000000000000000000, 0.000000000000000000 ) ) ;
#50 = CIRCLE ( 'NONE', #208, 0.2000000000000000944 ) ;
#51 = APPROVAL_STATUS ( 'not_yet_approved' ) ;
#52 = APPROVAL_STATUS ( 'not_yet_approved' ) ;
#53 = EDGE_CURVE ( 'NONE', #183, #206, #271, .T. ) ;
#54 = ORIENTED_EDGE ( 'NONE', *, *, #304, .T. ) ;
#55 = PERSON_AND_ORGANIZATION ( #113, #105 ) ;
#56 = CLOSED_SHELL ( 'NONE', ( #173, #97, #110, #232, #155, #92, #74, #136, #148 ) ) ;
#57 = AXIS2_PLACEMENT_3D ( 'NONE', #256, #166, #140 ) ;
#58 = COORDINATED_UNIVERSAL_TIME_OFFSET ( 1, 0, .AHEAD. ) ;
#59 = EDGE_LOOP ( 'NONE', ( #81, #292 ) ) ;
#60 = CALENDAR_DATE ( 2022, 7, 7 ) ;
#61 = EDGE_CURVE ( 'NONE', #42, #119, #62, .T. ) ;
#62 = LINE ( 'NONE', #254, #18 ) ;
#63 = DESIGN_CONTEXT ( 'detailed design', #16, 'design' ) ;
#64 = DIRECTION ( 'NONE',  ( 1.000000000000000000, 0.000000000000000000, 0.000000000000000000 ) ) ;
#65 = DIRECTION ( 'NONE',  ( 1.000000000000000000, 0.000000000000000000, 0.000000000000000000 ) ) ;
#66 = CYLINDRICAL_SURFACE ( 'NONE', #12, 0.9000000000000000222 ) ;
#67 = AXIS2_PLACEMENT_3D ( 'NONE', #267, #13, #297 ) ;
#68 = EDGE_LOOP ( 'NONE', ( #200, #133 ) ) ;
#69 = CARTESIAN_POINT ( 'NONE',  ( 0.000000000000000000, 0.000000000000000000, 1.700000000000007061 ) ) ;
#70 = DIRECTION ( 'NONE',  ( 0.000000000000000000, 0.000000000000000000, 1.000000000000000000 ) ) ;
#71 = DIRECTION ( 'NONE',  ( 0.000000000000000000, 0.000000000000000000, 1.000000000000000000 ) ) ;
#72 = APPLICATION_CONTEXT ( 'configuration controlled 3d designs of mechanical parts and assemblies' ) ;
#73 = PLANE ( 'NONE',  #213 ) ;
#74 = ADVANCED_FACE ( 'NONE', ( #20 ), #253, .T. ) ;
#75 = DATE_TIME_ROLE ( 'creation_date' ) ;
#76 =( GEOMETRIC_REPRESENTATION_CONTEXT ( 3 ) GLOBAL_UNCERTAINTY_ASSIGNED_CONTEXT ( ( #108 ) ) GLOBAL_UNIT_ASSIGNED_CONTEXT ( ( #215, #240, #33 ) ) REPRESENTATION_CONTEXT ( 'NONE', 'WORKASPACE' ) );
#77 = PERSON_AND_ORGANIZATION ( #113, #105 ) ;
#78 = ORIENTED_EDGE ( 'NONE', *, *, #48, .F. ) ;
#79 = PERSON_AND_ORGANIZATION_ROLE ( 'creator' ) ;
#80 = VERTEX_POINT ( 'NONE', #94 ) ;
#81 = ORIENTED_EDGE ( 'NONE', *, *, #182, .T. ) ;
#82 = APPROVAL_PERSON_ORGANIZATION ( #83, #282, #268 ) ;
#83 = PERSON_AND_ORGANIZATION ( #113, #105 ) ;
#84 = ORIENTED_EDGE ( 'NONE', *, *, #48, .T. ) ;
#85 = EDGE_CURVE ( 'NONE', #295, #114, #279, .T. ) ;
#86 = EDGE_LOOP ( 'NONE', ( #202, #269, #135, #104 ) ) ;
#87 = EDGE_LOOP ( 'NONE', ( #157, #54 ) ) ;
#88 = APPROVAL_PERSON_ORGANIZATION ( #158, #198, #32 ) ;
#89 = CARTESIAN_POINT ( 'NONE',  ( 0.000000000000000000, 0.000000000000000000, 1.500000000000000000 ) ) ;
#90 = ORIENTED_EDGE ( 'NONE', *, *, #252, .F. ) ;
#91 = ORIENTED_EDGE ( 'NONE', *, *, #164, .T. ) ;
#92 = ADVANCED_FACE ( 'NONE', ( #43 ), #38, .F. ) ;
#93 = CIRCLE ( 'NONE', #174, 0.9000000000000000222 ) ;
#94 = CARTESIAN_POINT ( 'NONE',  ( -0.9000000000000000222, 0.000000000000000000, 1.700000000000007061 ) ) ;
#95 = CARTESIAN_POINT ( 'NONE',  ( -0.9000000000000000222, 0.000000000000000000, 161.5000000000000000 ) ) ;
#96 = PLANE ( 'NONE',  #261 ) ;
#97 = ADVANCED_FACE ( 'NONE', ( #210 ), #66, .T. ) ;
#98 = CARTESIAN_POINT ( 'NONE',  ( 0.9000000000000000222, 1.102182119232617788E-16, 161.5000000000000000 ) ) ;
#99 = APPROVAL_PERSON_ORGANIZATION ( #77, #186, #129 ) ;
#100 = DIRECTION ( 'NONE',  ( 1.000000000000000000, 0.000000000000000000, 0.000000000000000000 ) ) ;
#101 = FACE_OUTER_BOUND ( 'NONE', #86, .T. ) ;
#102 = EDGE_CURVE ( 'NONE', #180, #80, #3, .T. ) ;
#103 = CALENDAR_DATE ( 2022, 7, 7 ) ;
#104 = ORIENTED_EDGE ( 'NONE', *, *, #304, .F. ) ;
#105 = ORGANIZATION ( 'NEURÈENÝ', 'NEURÈENÝ', '' ) ;
#106 = ORIENTED_EDGE ( 'NONE', *, *, #1, .F. ) ;
#107 = APPLICATION_PROTOCOL_DEFINITION ( 'international standard', 'config_control_design', 1994, #72 ) ;
#108 = UNCERTAINTY_MEASURE_WITH_UNIT (LENGTH_MEASURE( 1.000000000000000082E-05 ), #215, 'distance_accuracy_value', 'NONE');
#109 = DATE_TIME_ROLE ( 'classification_date' ) ;
#110 = ADVANCED_FACE ( 'NONE', ( #23 ), #116, .T. ) ;
#111 = ORIENTED_EDGE ( 'NONE', *, *, #177, .F. ) ;
#112 = CIRCLE ( 'NONE', #169, 0.9000000000000000222 ) ;
#113 = PERSON ( 'NEURÈENÝ', 'NEURÈENÝ', 'NEURÈENÝ', ('NEURÈENÝ'), ('NEURÈENÝ'), ('NEURÈENÝ') ) ;
#114 = VERTEX_POINT ( 'NONE', #211 ) ;
#115 = EDGE_CURVE ( 'NONE', #80, #114, #50, .T. ) ;
#116 = CYLINDRICAL_SURFACE ( 'NONE', #150, 2.000000000000000000 ) ;
#117 = AXIS2_PLACEMENT_3D ( 'NONE', #276, #15, #231 ) ;
#118 = CARTESIAN_POINT ( 'NONE',  ( 1.100000000000000089, 0.000000000000000000, 1.700000000000007061 ) ) ;
#119 = VERTEX_POINT ( 'NONE', #258 ) ;
#120 = DIRECTION ( 'NONE',  ( -0.000000000000000000, -0.000000000000000000, -1.000000000000000000 ) ) ;
#121 = CIRCLE ( 'NONE', #154, 1.100000000000000089 ) ;
#122 = CARTESIAN_POINT ( 'NONE',  ( -2.000000000000000000, 0.000000000000000000, 1.500000000000000000 ) ) ;
#123 = DIRECTION ( 'NONE',  ( -0.000000000000000000, -0.000000000000000000, -1.000000000000000000 ) ) ;
#124 = LINE ( 'NONE', #5, #25 ) ;
#125 = DIRECTION ( 'NONE',  ( 0.000000000000000000, 0.000000000000000000, 1.000000000000000000 ) ) ;
#126 = CARTESIAN_POINT ( 'NONE',  ( 0.000000000000000000, 0.000000000000000000, 161.5000000000000000 ) ) ;
#127 = CC_DESIGN_PERSON_AND_ORGANIZATION_ASSIGNMENT ( #195, #203, ( #185 ) ) ;
#128 = COORDINATED_UNIVERSAL_TIME_OFFSET ( 1, 0, .AHEAD. ) ;
#129 = APPROVAL_ROLE ( '' ) ;
#130 = AXIS2_PLACEMENT_3D ( 'NONE', #69, #71, #2 ) ;
#131 = SHAPE_DEFINITION_REPRESENTATION ( #237, #234 ) ;
#132 = APPLICATION_PROTOCOL_DEFINITION ( 'international standard', 'config_control_design', 1994, #16 ) ;
#133 = ORIENTED_EDGE ( 'NONE', *, *, #27, .T. ) ;
#134 = DATE_AND_TIME ( #153, #241 ) ;
#135 = ORIENTED_EDGE ( 'NONE', *, *, #1, .T. ) ;
#136 = ADVANCED_FACE ( 'NONE', ( #262 ), #73, .T. ) ;
#137 = CARTESIAN_POINT ( 'NONE',  ( 0.000000000000000000, 0.000000000000000000, 0.000000000000000000 ) ) ;
#138 = DIRECTION ( 'NONE',  ( -1.000000000000000000, 0.000000000000000000, 0.000000000000000000 ) ) ;
#139 = EDGE_LOOP ( 'NONE', ( #181, #225, #91, #142 ) ) ;
#140 = DIRECTION ( 'NONE',  ( 1.000000000000000000, 0.000000000000000000, 0.000000000000000000 ) ) ;
#141 = CC_DESIGN_PERSON_AND_ORGANIZATION_ASSIGNMENT ( #156, #197, ( #230 ) ) ;
#142 = ORIENTED_EDGE ( 'NONE', *, *, #177, .T. ) ;
#143 = DIRECTION ( 'NONE',  ( 0.000000000000000000, 0.000000000000000000, 1.000000000000000000 ) ) ;
#144 = CC_DESIGN_APPROVAL ( #282, ( #21 ) ) ;
#145 = FACE_OUTER_BOUND ( 'NONE', #257, .T. ) ;
#146 = CARTESIAN_POINT ( 'NONE',  ( -2.000000000000000000, 0.000000000000000000, 0.000000000000000000 ) ) ;
#147 = DIRECTION ( 'NONE',  ( -0.000000000000000000, -0.000000000000000000, -1.000000000000000000 ) ) ;
#148 = ADVANCED_FACE ( 'NONE', ( #101 ), #224, .F. ) ;
#149 = LINE ( 'NONE', #98, #204 ) ;
#150 = AXIS2_PLACEMENT_3D ( 'NONE', #89, #120, #162 ) ;
#151 = APPROVAL_DATE_TIME ( #7, #282 ) ;
#152 = VERTEX_POINT ( 'NONE', #146 ) ;
#153 = CALENDAR_DATE ( 2022, 7, 7 ) ;
#154 = AXIS2_PLACEMENT_3D ( 'NONE', #26, #168, #218 ) ;
#155 = ADVANCED_FACE ( 'NONE', ( #24, #44 ), #96, .T. ) ;
#156 = PERSON_AND_ORGANIZATION ( #113, #105 ) ;
#157 = ORIENTED_EDGE ( 'NONE', *, *, #85, .T. ) ;
#158 = PERSON_AND_ORGANIZATION ( #113, #105 ) ;
#159 = DIRECTION ( 'NONE',  ( 0.000000000000000000, 0.000000000000000000, 1.000000000000000000 ) ) ;
#160 = CIRCLE ( 'NONE', #266, 2.000000000000000000 ) ;
#161 = CARTESIAN_POINT ( 'NONE',  ( 2.000000000000000000, 2.449293598294706414E-16, 1.500000000000000000 ) ) ;
#162 = DIRECTION ( 'NONE',  ( -1.000000000000000000, 0.000000000000000000, 0.000000000000000000 ) ) ;
#163 = CARTESIAN_POINT ( 'NONE',  ( 0.000000000000000000, 0.000000000000000000, 161.5000000000000000 ) ) ;
#164 = EDGE_CURVE ( 'NONE', #183, #80, #124, .T. ) ;
#165 = CIRCLE ( 'NONE', #37, 2.000000000000000000 ) ;
#166 = DIRECTION ( 'NONE',  ( 0.000000000000000000, 0.000000000000000000, 1.000000000000000000 ) ) ;
#167 = LINE ( 'NONE', #287, #281 ) ;
#168 = DIRECTION ( 'NONE',  ( -0.000000000000000000, -0.000000000000000000, -1.000000000000000000 ) ) ;
#169 = AXIS2_PLACEMENT_3D ( 'NONE', #187, #184, #64 ) ;
#170 = DIRECTION ( 'NONE',  ( 1.000000000000000000, 0.000000000000000000, 0.000000000000000000 ) ) ;
#171 = DIRECTION ( 'NONE',  ( 1.000000000000000000, 0.000000000000000000, 0.000000000000000000 ) ) ;
#172 = DIRECTION ( 'NONE',  ( 1.000000000000000000, 0.000000000000000000, -0.000000000000000000 ) ) ;
#173 = ADVANCED_FACE ( 'NONE', ( #259 ), #290, .F. ) ;
#174 = AXIS2_PLACEMENT_3D ( 'NONE', #45, #217, #100 ) ;
#175 = ORIENTED_EDGE ( 'NONE', *, *, #61, .F. ) ;
#176 = CALENDAR_DATE ( 2022, 7, 7 ) ;
#177 = EDGE_CURVE ( 'NONE', #80, #180, #93, .T. ) ;
#178 = CIRCLE ( 'NONE', #255, 0.2000000000000000944 ) ;
#179 = CC_DESIGN_APPROVAL ( #186, ( #230 ) ) ;
#180 = VERTEX_POINT ( 'NONE', #286 ) ;
#181 = ORIENTED_EDGE ( 'NONE', *, *, #294, .F. ) ;
#182 = EDGE_CURVE ( 'NONE', #233, #42, #160, .T. ) ;
#183 = VERTEX_POINT ( 'NONE', #95 ) ;
#184 = DIRECTION ( 'NONE',  ( 0.000000000000000000, 0.000000000000000000, 1.000000000000000000 ) ) ;
#185 = PRODUCT ( 'e48d', 'e48d', '', ( #243 ) ) ;
#186 = APPROVAL ( #52, 'NEURÈENÝ' ) ;
#187 = CARTESIAN_POINT ( 'NONE',  ( 0.000000000000000000, 0.000000000000000000, 161.5000000000000000 ) ) ;
#188 = DIRECTION ( 'NONE',  ( -0.000000000000000000, -0.000000000000000000, -1.000000000000000000 ) ) ;
#189 = DIRECTION ( 'NONE',  ( 1.000000000000000000, 0.000000000000000000, 0.000000000000000000 ) ) ;
#190 = CARTESIAN_POINT ( 'NONE',  ( -1.100000000000000089, 1.347111479062088503E-16, 1.700000000000007061 ) ) ;
#191 = DIRECTION ( 'NONE',  ( 0.000000000000000000, 0.000000000000000000, 1.000000000000000000 ) ) ;
#192 = CC_DESIGN_APPROVAL ( #198, ( #260 ) ) ;
#193 = CARTESIAN_POINT ( 'NONE',  ( 0.9000000000000000222, 1.102182119232617788E-16, 161.5000000000000000 ) ) ;
#194 = CC_DESIGN_DATE_AND_TIME_ASSIGNMENT ( #134, #109, ( #230 ) ) ;
#195 = PERSON_AND_ORGANIZATION ( #113, #105 ) ;
#196 = AXIS2_PLACEMENT_3D ( 'NONE', #137, #17, #39 ) ;
#197 = PERSON_AND_ORGANIZATION_ROLE ( 'classification_officer' ) ;
#198 = APPROVAL ( #273, 'NEURÈENÝ' ) ;
#199 = PERSON_AND_ORGANIZATION ( #113, #105 ) ;
#200 = ORIENTED_EDGE ( 'NONE', *, *, #53, .T. ) ;
#201 = COORDINATED_UNIVERSAL_TIME_OFFSET ( 1, 0, .AHEAD. ) ;
#202 = ORIENTED_EDGE ( 'NONE', *, *, #115, .F. ) ;
#203 = PERSON_AND_ORGANIZATION_ROLE ( 'design_owner' ) ;
#204 = VECTOR ( 'NONE', #236, 1000.000000000000000 ) ;
#205 = ORIENTED_EDGE ( 'NONE', *, *, #252, .T. ) ;
#206 = VERTEX_POINT ( 'NONE', #193 ) ;
#207 = ORIENTED_EDGE ( 'NONE', *, *, #85, .F. ) ;
#208 = AXIS2_PLACEMENT_3D ( 'NONE', #190, #265, #216 ) ;
#209 = DIRECTION ( 'NONE',  ( -0.000000000000000000, -0.000000000000000000, -1.000000000000000000 ) ) ;
#210 = FACE_OUTER_BOUND ( 'NONE', #40, .T. ) ;
#211 = CARTESIAN_POINT ( 'NONE',  ( -1.100000000000000089, 1.347111479062088503E-16, 1.500000000000003553 ) ) ;
#212 = AXIS2_PLACEMENT_3D ( 'NONE', #306, #159, #227 ) ;
#213 = AXIS2_PLACEMENT_3D ( 'NONE', #126, #125, #172 ) ;
#214 = DIRECTION ( 'NONE',  ( 1.000000000000000000, 0.000000000000000000, -0.000000000000000000 ) ) ;
#215 =( LENGTH_UNIT ( ) NAMED_UNIT ( * ) SI_UNIT ( .MILLI., .METRE. ) );
#216 = DIRECTION ( 'NONE',  ( -1.000000000000000000, 1.224646799147353207E-16, 0.000000000000000000 ) ) ;
#217 = DIRECTION ( 'NONE',  ( 0.000000000000000000, 0.000000000000000000, 1.000000000000000000 ) ) ;
#218 = DIRECTION ( 'NONE',  ( 1.000000000000000000, 0.000000000000000000, 0.000000000000000000 ) ) ;
#219 = SECURITY_CLASSIFICATION_LEVEL ( 'unclassified' ) ;
#220 = CC_DESIGN_PERSON_AND_ORGANIZATION_ASSIGNMENT ( #55, #35, ( #260 ) ) ;
#221 = DATE_AND_TIME ( #293, #4 ) ;
#222 = DATE_AND_TIME ( #60, #46 ) ;
#223 = ORIENTED_EDGE ( 'NONE', *, *, #182, .F. ) ;
#224 = TOROIDAL_SURFACE ( 'NONE', #275, 1.100000000000000089, 0.2000000000000000111 ) ;
#225 = ORIENTED_EDGE ( 'NONE', *, *, #53, .F. ) ;
#226 = ORIENTED_EDGE ( 'NONE', *, *, #102, .T. ) ;
#227 = DIRECTION ( 'NONE',  ( 1.000000000000000000, 0.000000000000000000, 0.000000000000000000 ) ) ;
#228 = AXIS2_PLACEMENT_3D ( 'NONE', #251, #209, #280 ) ;
#229 = DIRECTION ( 'NONE',  ( -0.000000000000000000, -0.000000000000000000, -1.000000000000000000 ) ) ;
#230 = SECURITY_CLASSIFICATION ( '', '', #219 ) ;
#231 = DIRECTION ( 'NONE',  ( 1.000000000000000000, 0.000000000000000000, 0.000000000000000000 ) ) ;
#232 = ADVANCED_FACE ( 'NONE', ( #145 ), #283, .T. ) ;
#233 = VERTEX_POINT ( 'NONE', #122 ) ;
#234 = ADVANCED_BREP_SHAPE_REPRESENTATION ( 'e48d', ( #30, #67 ), #76 ) ;
#235 = CARTESIAN_POINT ( 'NONE',  ( 0.000000000000000000, 0.000000000000000000, 1.500000000000000000 ) ) ;
#236 = DIRECTION ( 'NONE',  ( -0.000000000000000000, -0.000000000000000000, -1.000000000000000000 ) ) ;
#237 = PRODUCT_DEFINITION_SHAPE ( 'NONE', 'NONE',  #21 ) ;
#238 = CARTESIAN_POINT ( 'NONE',  ( 0.000000000000000000, 0.000000000000000000, 1.500000000000000000 ) ) ;
#239 = CC_DESIGN_PERSON_AND_ORGANIZATION_ASSIGNMENT ( #289, #79, ( #21 ) ) ;
#240 =( NAMED_UNIT ( * ) PLANE_ANGLE_UNIT ( ) SI_UNIT ( $, .RADIAN. ) );
#241 = LOCAL_TIME ( 12, 37, 2.000000000000000000, #291 ) ;
#242 = CARTESIAN_POINT ( 'NONE',  ( 1.100000000000000089, 0.000000000000000000, 1.500000000000003553 ) ) ;
#243 = MECHANICAL_CONTEXT ( 'NONE', #72, 'mechanical' ) ;
#244 = CC_DESIGN_DATE_AND_TIME_ASSIGNMENT ( #222, #75, ( #21 ) ) ;
#245 = ORIENTED_EDGE ( 'NONE', *, *, #263, .F. ) ;
#246 = APPROVAL_DATE_TIME ( #221, #186 ) ;
#247 = CC_DESIGN_PERSON_AND_ORGANIZATION_ASSIGNMENT ( #199, #11, ( #260 ) ) ;
#248 = APPROVAL_DATE_TIME ( #270, #198 ) ;
#249 = ORIENTED_EDGE ( 'NONE', *, *, #294, .T. ) ;
#250 = AXIS2_PLACEMENT_3D ( 'NONE', #302, #303, #65 ) ;
#251 = CARTESIAN_POINT ( 'NONE',  ( 0.000000000000000000, 0.000000000000000000, 161.5000000000000000 ) ) ;
#252 = EDGE_CURVE ( 'NONE', #233, #152, #167, .T. ) ;
#253 = CYLINDRICAL_SURFACE ( 'NONE', #228, 0.9000000000000000222 ) ;
#254 = CARTESIAN_POINT ( 'NONE',  ( 2.000000000000000000, 2.449293598294706414E-16, 1.500000000000000000 ) ) ;
#255 = AXIS2_PLACEMENT_3D ( 'NONE', #118, #300, #22 ) ;
#256 = CARTESIAN_POINT ( 'NONE',  ( 0.000000000000000000, 0.000000000000000000, 1.700000000000007061 ) ) ;
#257 = EDGE_LOOP ( 'NONE', ( #175, #223, #205, #84 ) ) ;
#258 = CARTESIAN_POINT ( 'NONE',  ( 2.000000000000000000, 2.449293598294706414E-16, 0.000000000000000000 ) ) ;
#259 = FACE_OUTER_BOUND ( 'NONE', #298, .T. ) ;
#260 = PRODUCT_DEFINITION_FORMATION_WITH_SPECIFIED_SOURCE ( 'LIBOVOLNÝ', '', #185, .NOT_KNOWN. ) ;
#261 = AXIS2_PLACEMENT_3D ( 'NONE', #238, #191, #214 ) ;
#262 = FACE_OUTER_BOUND ( 'NONE', #68, .T. ) ;
#263 = EDGE_CURVE ( 'NONE', #119, #152, #165, .T. ) ;
#264 = DIRECTION ( 'NONE',  ( -1.000000000000000000, 0.000000000000000000, 0.000000000000000000 ) ) ;
#265 = DIRECTION ( 'NONE',  ( 1.224646799147353207E-16, 1.000000000000000000, -0.000000000000000000 ) ) ;
#266 = AXIS2_PLACEMENT_3D ( 'NONE', #307, #143, #171 ) ;
#267 = CARTESIAN_POINT ( 'NONE',  ( 0.000000000000000000, 0.000000000000000000, 0.000000000000000000 ) ) ;
#268 = APPROVAL_ROLE ( '' ) ;
#269 = ORIENTED_EDGE ( 'NONE', *, *, #102, .F. ) ;
#270 = DATE_AND_TIME ( #176, #285 ) ;
#271 = CIRCLE ( 'NONE', #212, 0.9000000000000000222 ) ;
#272 = ORIENTED_EDGE ( 'NONE', *, *, #115, .T. ) ;
#273 = APPROVAL_STATUS ( 'not_yet_approved' ) ;
#274 = ORIENTED_EDGE ( 'NONE', *, *, #263, .T. ) ;
#275 = AXIS2_PLACEMENT_3D ( 'NONE', #6, #47, #49 ) ;
#276 = CARTESIAN_POINT ( 'NONE',  ( 0.000000000000000000, 0.000000000000000000, 1.500000000000000000 ) ) ;
#277 = DIRECTION ( 'NONE',  ( 0.000000000000000000, 0.000000000000000000, 1.000000000000000000 ) ) ;
#278 = CARTESIAN_POINT ( 'NONE',  ( 0.000000000000000000, 0.000000000000000000, 0.000000000000000000 ) ) ;
#279 = CIRCLE ( 'NONE', #250, 1.100000000000000089 ) ;
#280 = DIRECTION ( 'NONE',  ( -1.000000000000000000, 0.000000000000000000, 0.000000000000000000 ) ) ;
#281 = VECTOR ( 'NONE', #28, 1000.000000000000000 ) ;
#282 = APPROVAL ( #51, 'NEURÈENÝ' ) ;
#283 = CYLINDRICAL_SURFACE ( 'NONE', #19, 2.000000000000000000 ) ;
#284 = CARTESIAN_POINT ( 'NONE',  ( 0.000000000000000000, 0.000000000000000000, 0.000000000000000000 ) ) ;
#285 = LOCAL_TIME ( 12, 37, 2.000000000000000000, #128 ) ;
#286 = CARTESIAN_POINT ( 'NONE',  ( 0.9000000000000000222, 1.102182119232617788E-16, 1.700000000000007061 ) ) ;
#287 = CARTESIAN_POINT ( 'NONE',  ( -2.000000000000000000, 0.000000000000000000, 1.500000000000000000 ) ) ;
#288 = PRODUCT_RELATED_PRODUCT_CATEGORY ( 'detail', '', ( #185 ) ) ;
#289 = PERSON_AND_ORGANIZATION ( #113, #105 ) ;
#290 = TOROIDAL_SURFACE ( 'NONE', #130, 1.100000000000000089, 0.2000000000000000111 ) ;
#291 = COORDINATED_UNIVERSAL_TIME_OFFSET ( 1, 0, .AHEAD. ) ;
#292 = ORIENTED_EDGE ( 'NONE', *, *, #10, .T. ) ;
#293 = CALENDAR_DATE ( 2022, 7, 7 ) ;
#294 = EDGE_CURVE ( 'NONE', #206, #180, #149, .T. ) ;
#295 = VERTEX_POINT ( 'NONE', #242 ) ;
#296 = CIRCLE ( 'NONE', #31, 2.000000000000000000 ) ;
#297 = DIRECTION ( 'NONE',  ( 1.000000000000000000, 0.000000000000000000, 0.000000000000000000 ) ) ;
#298 = EDGE_LOOP ( 'NONE', ( #111, #272, #207, #106 ) ) ;
#299 = ORIENTED_EDGE ( 'NONE', *, *, #61, .T. ) ;
#300 = DIRECTION ( 'NONE',  ( 0.000000000000000000, -1.000000000000000000, 0.000000000000000000 ) ) ;
#301 = CIRCLE ( 'NONE', #117, 2.000000000000000000 ) ;
#302 = CARTESIAN_POINT ( 'NONE',  ( 0.000000000000000000, 0.000000000000000000, 1.500000000000000000 ) ) ;
#303 = DIRECTION ( 'NONE',  ( -0.000000000000000000, -0.000000000000000000, -1.000000000000000000 ) ) ;
#304 = EDGE_CURVE ( 'NONE', #114, #295, #121, .T. ) ;
#305 = ORIENTED_EDGE ( 'NONE', *, *, #164, .F. ) ;
#306 = CARTESIAN_POINT ( 'NONE',  ( 0.000000000000000000, 0.000000000000000000, 161.5000000000000000 ) ) ;
#307 = CARTESIAN_POINT ( 'NONE',  ( 0.000000000000000000, 0.000000000000000000, 1.500000000000000000 ) ) ;
ENDSEC;
END-ISO-10303-21;
