ISO-10303-21;
HEADER;
FILE_DESCRIPTION (( 'STEP AP203' ),
    '1' );
FILE_NAME ('6adc.STEP',
    '2023-02-12T11:46:22',
    ( '' ),
    ( '' ),
    'SwSTEP 2.0',
    'SolidWorks 2019',
    '' );
FILE_SCHEMA (( 'CONFIG_CONTROL_DESIGN' ));
ENDSEC;

DATA;
#1 = EDGE_LOOP ( 'NONE', ( #229, #191, #136, #217 ) ) ;
#2 = APPLICATION_PROTOCOL_DEFINITION ( 'international standard', 'config_control_design', 1994, #39 ) ;
#3 = ORIENTED_EDGE ( 'NONE', *, *, #129, .T. ) ;
#4 =( NAMED_UNIT ( * ) SI_UNIT ( $, .STERADIAN. ) SOLID_ANGLE_UNIT ( ) );
#5 = DIRECTION ( 'NONE',  ( 1.000000000000000000, 0.000000000000000000, 0.000000000000000000 ) ) ;
#6 = AXIS2_PLACEMENT_3D ( 'NONE', #220, #88, #5 ) ;
#7 = ORIENTED_EDGE ( 'NONE', *, *, #165, .F. ) ;
#8 = VERTEX_POINT ( 'NONE', #68 ) ;
#9 = APPROVAL_ROLE ( '' ) ;
#10 = AXIS2_PLACEMENT_3D ( 'NONE', #101, #252, #64 ) ;
#11 = MECHANICAL_CONTEXT ( 'NONE', #39, 'mechanical' ) ;
#12 = VERTEX_POINT ( 'NONE', #174 ) ;
#13 = PLANE ( 'NONE',  #83 ) ;
#14 = AXIS2_PLACEMENT_3D ( 'NONE', #77, #150, #148 ) ;
#15 = PLANE ( 'NONE',  #54 ) ;
#16 = PERSON ( 'NEURÈENÝ', 'NEURÈENÝ', 'NEURÈENÝ', ('NEURÈENÝ'), ('NEURÈENÝ'), ('NEURÈENÝ') ) ;
#17 = DIRECTION ( 'NONE',  ( 0.000000000000000000, 0.000000000000000000, 1.000000000000000000 ) ) ;
#18 = DIRECTION ( 'NONE',  ( 1.000000000000000000, 0.000000000000000000, 0.000000000000000000 ) ) ;
#19 = CARTESIAN_POINT ( 'NONE',  ( -4.099999999999999645, 0.000000000000000000, 200.0000000000000000 ) ) ;
#20 = ORIENTED_EDGE ( 'NONE', *, *, #129, .F. ) ;
#21 = LINE ( 'NONE', #19, #46 ) ;
#22 = VECTOR ( 'NONE', #194, 1000.000000000000000 ) ;
#23 = DIRECTION ( 'NONE',  ( 1.000000000000000000, 0.000000000000000000, -0.000000000000000000 ) ) ;
#24 = PRODUCT_RELATED_PRODUCT_CATEGORY ( 'detail', '', ( #72 ) ) ;
#25 = VERTEX_POINT ( 'NONE', #167 ) ;
#26 = DIRECTION ( 'NONE',  ( 1.000000000000000000, 0.000000000000000000, -0.000000000000000000 ) ) ;
#27 = EDGE_CURVE ( 'NONE', #144, #8, #132, .T. ) ;
#28 = CARTESIAN_POINT ( 'NONE',  ( 7.000000000000000000, 8.572527594031473190E-16, 5.000000000000000000 ) ) ;
#29 = ADVANCED_FACE ( 'NONE', ( #180 ), #140, .T. ) ;
#30 = ORIENTED_EDGE ( 'NONE', *, *, #149, .T. ) ;
#31 = EDGE_CURVE ( 'NONE', #245, #8, #169, .T. ) ;
#32 = DESIGN_CONTEXT ( 'detailed design', #189, 'design' ) ;
#33 = VERTEX_POINT ( 'NONE', #79 ) ;
#34 = ADVANCED_FACE ( 'NONE', ( #152 ), #56, .T. ) ;
#35 = DIRECTION ( 'NONE',  ( 0.000000000000000000, 0.000000000000000000, 1.000000000000000000 ) ) ;
#36 = EDGE_CURVE ( 'NONE', #52, #25, #227, .T. ) ;
#37 = CARTESIAN_POINT ( 'NONE',  ( 4.099999999999999645, 5.021051876504147385E-16, 200.0000000000000000 ) ) ;
#38 = CIRCLE ( 'NONE', #231, 7.000000000000000000 ) ;
#39 = APPLICATION_CONTEXT ( 'configuration controlled 3d designs of mechanical parts and assemblies' ) ;
#40 = DIRECTION ( 'NONE',  ( -0.000000000000000000, -0.000000000000000000, -1.000000000000000000 ) ) ;
#41 = ADVANCED_FACE ( 'NONE', ( #66 ), #15, .T. ) ;
#42 = COORDINATED_UNIVERSAL_TIME_OFFSET ( 1, 0, .AHEAD. ) ;
#43 = DIRECTION ( 'NONE',  ( -1.000000000000000000, 0.000000000000000000, 0.000000000000000000 ) ) ;
#44 = PERSON_AND_ORGANIZATION ( #16, #116 ) ;
#45 = EDGE_LOOP ( 'NONE', ( #105, #198, #47, #226 ) ) ;
#46 = VECTOR ( 'NONE', #157, 1000.000000000000000 ) ;
#47 = ORIENTED_EDGE ( 'NONE', *, *, #183, .T. ) ;
#48 = APPROVAL_DATE_TIME ( #103, #195 ) ;
#49 = CC_DESIGN_PERSON_AND_ORGANIZATION_ASSIGNMENT ( #146, #145, ( #106 ) ) ;
#50 = ADVANCED_FACE ( 'NONE', ( #154 ), #193, .T. ) ;
#51 = AXIS2_PLACEMENT_3D ( 'NONE', #138, #117, #100 ) ;
#52 = VERTEX_POINT ( 'NONE', #172 ) ;
#53 = DATE_TIME_ROLE ( 'creation_date' ) ;
#54 = AXIS2_PLACEMENT_3D ( 'NONE', #141, #216, #23 ) ;
#55 = ADVANCED_FACE ( 'NONE', ( #175 ), #153, .T. ) ;
#56 = CYLINDRICAL_SURFACE ( 'NONE', #14, 7.000000000000000000 ) ;
#57 = APPLICATION_PROTOCOL_DEFINITION ( 'international standard', 'config_control_design', 1994, #189 ) ;
#58 = CC_DESIGN_DATE_AND_TIME_ASSIGNMENT ( #199, #143, ( #106 ) ) ;
#59 = CC_DESIGN_PERSON_AND_ORGANIZATION_ASSIGNMENT ( #44, #237, ( #78 ) ) ;
#60 = LOCAL_TIME ( 12, 46, 22.00000000000000000, #91 ) ;
#61 = EDGE_CURVE ( 'NONE', #33, #144, #38, .T. ) ;
#62 = FACE_OUTER_BOUND ( 'NONE', #126, .T. ) ;
#63 = ORIENTED_EDGE ( 'NONE', *, *, #31, .F. ) ;
#64 = DIRECTION ( 'NONE',  ( 1.000000000000000000, 0.000000000000000000, 0.000000000000000000 ) ) ;
#65 = FACE_BOUND ( 'NONE', #235, .T. ) ;
#66 = FACE_OUTER_BOUND ( 'NONE', #123, .T. ) ;
#67 = APPROVAL_STATUS ( 'not_yet_approved' ) ;
#68 = CARTESIAN_POINT ( 'NONE',  ( 7.000000000000000000, 8.572527594031473190E-16, 0.000000000000000000 ) ) ;
#69 =( LENGTH_UNIT ( ) NAMED_UNIT ( * ) SI_UNIT ( .MILLI., .METRE. ) );
#70 = VECTOR ( 'NONE', #108, 1000.000000000000000 ) ;
#71 = DIRECTION ( 'NONE',  ( 0.000000000000000000, 0.000000000000000000, 1.000000000000000000 ) ) ;
#72 = PRODUCT ( '6adc', '6adc', '', ( #11 ) ) ;
#73 =( GEOMETRIC_REPRESENTATION_CONTEXT ( 3 ) GLOBAL_UNCERTAINTY_ASSIGNED_CONTEXT ( ( #76 ) ) GLOBAL_UNIT_ASSIGNED_CONTEXT ( ( #69, #201, #4 ) ) REPRESENTATION_CONTEXT ( 'NONE', 'WORKASPACE' ) );
#74 = DATE_AND_TIME ( #249, #60 ) ;
#75 = PERSON_AND_ORGANIZATION_ROLE ( 'creator' ) ;
#76 = UNCERTAINTY_MEASURE_WITH_UNIT (LENGTH_MEASURE( 1.000000000000000082E-05 ), #69, 'distance_accuracy_value', 'NONE');
#77 = CARTESIAN_POINT ( 'NONE',  ( 0.000000000000000000, 0.000000000000000000, 5.000000000000000000 ) ) ;
#78 = PRODUCT_DEFINITION_FORMATION_WITH_SPECIFIED_SOURCE ( 'LIBOVOLNÝ', '', #72, .NOT_KNOWN. ) ;
#79 = CARTESIAN_POINT ( 'NONE',  ( -7.000000000000000000, 0.000000000000000000, 5.000000000000000000 ) ) ;
#80 = DIRECTION ( 'NONE',  ( 1.000000000000000000, 0.000000000000000000, 0.000000000000000000 ) ) ;
#81 = DIRECTION ( 'NONE',  ( 0.000000000000000000, 0.000000000000000000, 1.000000000000000000 ) ) ;
#82 = AXIS2_PLACEMENT_3D ( 'NONE', #114, #119, #192 ) ;
#83 = AXIS2_PLACEMENT_3D ( 'NONE', #98, #251, #230 ) ;
#84 = DIRECTION ( 'NONE',  ( -0.000000000000000000, -0.000000000000000000, -1.000000000000000000 ) ) ;
#85 = DIRECTION ( 'NONE',  ( 0.000000000000000000, 0.000000000000000000, 1.000000000000000000 ) ) ;
#86 = PERSON_AND_ORGANIZATION_ROLE ( 'creator' ) ;
#87 = ORIENTED_EDGE ( 'NONE', *, *, #142, .T. ) ;
#88 = DIRECTION ( 'NONE',  ( 0.000000000000000000, 0.000000000000000000, 1.000000000000000000 ) ) ;
#89 = PERSON_AND_ORGANIZATION ( #16, #116 ) ;
#90 = CARTESIAN_POINT ( 'NONE',  ( 7.000000000000000000, 8.572527594031473190E-16, 5.000000000000000000 ) ) ;
#91 = COORDINATED_UNIVERSAL_TIME_OFFSET ( 1, 0, .AHEAD. ) ;
#92 = DIRECTION ( 'NONE',  ( 1.000000000000000000, 0.000000000000000000, 0.000000000000000000 ) ) ;
#93 = CARTESIAN_POINT ( 'NONE',  ( 0.000000000000000000, 0.000000000000000000, 200.0000000000000000 ) ) ;
#94 = ORIENTED_EDGE ( 'NONE', *, *, #142, .F. ) ;
#95 = AXIS2_PLACEMENT_3D ( 'NONE', #131, #188, #80 ) ;
#96 = APPROVAL_DATE_TIME ( #185, #112 ) ;
#97 = ORIENTED_EDGE ( 'NONE', *, *, #147, .F. ) ;
#98 = CARTESIAN_POINT ( 'NONE',  ( 0.000000000000000000, 0.000000000000000000, 0.000000000000000000 ) ) ;
#99 = CIRCLE ( 'NONE', #151, 4.099999999999999645 ) ;
#100 = DIRECTION ( 'NONE',  ( -1.000000000000000000, 0.000000000000000000, 0.000000000000000000 ) ) ;
#101 = CARTESIAN_POINT ( 'NONE',  ( 0.000000000000000000, 0.000000000000000000, 200.0000000000000000 ) ) ;
#102 = APPROVAL_PERSON_ORGANIZATION ( #182, #112, #208 ) ;
#103 = DATE_AND_TIME ( #178, #156 ) ;
#104 = ORIENTED_EDGE ( 'NONE', *, *, #147, .T. ) ;
#105 = ORIENTED_EDGE ( 'NONE', *, *, #36, .F. ) ;
#106 = SECURITY_CLASSIFICATION ( '', '', #125 ) ;
#107 = CARTESIAN_POINT ( 'NONE',  ( -7.000000000000000000, 0.000000000000000000, 0.000000000000000000 ) ) ;
#108 = DIRECTION ( 'NONE',  ( -0.000000000000000000, -0.000000000000000000, -1.000000000000000000 ) ) ;
#109 = CLOSED_SHELL ( 'NONE', ( #29, #34, #50, #212, #137, #55, #41 ) ) ;
#110 = ORIENTED_EDGE ( 'NONE', *, *, #183, .F. ) ;
#111 = PERSON_AND_ORGANIZATION ( #16, #116 ) ;
#112 = APPROVAL ( #166, 'NEURÈENÝ' ) ;
#113 = LINE ( 'NONE', #232, #22 ) ;
#114 = CARTESIAN_POINT ( 'NONE',  ( 0.000000000000000000, 0.000000000000000000, 5.000000000000000000 ) ) ;
#115 = PRODUCT_DEFINITION ( 'NEZNÁMÝ', '', #78, #32 ) ;
#116 = ORGANIZATION ( 'NEURÈENÝ', 'NEURÈENÝ', '' ) ;
#117 = DIRECTION ( 'NONE',  ( -0.000000000000000000, -0.000000000000000000, -1.000000000000000000 ) ) ;
#118 = EDGE_CURVE ( 'NONE', #12, #52, #130, .T. ) ;
#119 = DIRECTION ( 'NONE',  ( 0.000000000000000000, 0.000000000000000000, 1.000000000000000000 ) ) ;
#120 = PERSON_AND_ORGANIZATION ( #16, #116 ) ;
#121 = FACE_OUTER_BOUND ( 'NONE', #211, .T. ) ;
#122 = APPROVAL ( #133, 'NEURÈENÝ' ) ;
#123 = EDGE_LOOP ( 'NONE', ( #200, #30 ) ) ;
#124 = CARTESIAN_POINT ( 'NONE',  ( 0.000000000000000000, 0.000000000000000000, 5.000000000000000000 ) ) ;
#125 = SECURITY_CLASSIFICATION_LEVEL ( 'unclassified' ) ;
#126 = EDGE_LOOP ( 'NONE', ( #63, #94 ) ) ;
#127 = ADVANCED_BREP_SHAPE_REPRESENTATION ( '6adc', ( #225, #134 ), #73 ) ;
#128 = SHAPE_DEFINITION_REPRESENTATION ( #205, #127 ) ;
#129 = EDGE_CURVE ( 'NONE', #144, #33, #186, .T. ) ;
#130 = CIRCLE ( 'NONE', #10, 4.099999999999999645 ) ;
#131 = CARTESIAN_POINT ( 'NONE',  ( 0.000000000000000000, 0.000000000000000000, 200.0000000000000000 ) ) ;
#132 = LINE ( 'NONE', #28, #70 ) ;
#133 = APPROVAL_STATUS ( 'not_yet_approved' ) ;
#134 = AXIS2_PLACEMENT_3D ( 'NONE', #218, #85, #161 ) ;
#135 = DATE_AND_TIME ( #246, #219 ) ;
#136 = ORIENTED_EDGE ( 'NONE', *, *, #165, .T. ) ;
#137 = ADVANCED_FACE ( 'NONE', ( #62 ), #13, .F. ) ;
#138 = CARTESIAN_POINT ( 'NONE',  ( 0.000000000000000000, 0.000000000000000000, 5.000000000000000000 ) ) ;
#139 = CARTESIAN_POINT ( 'NONE',  ( 0.000000000000000000, 0.000000000000000000, 5.000000000000000000 ) ) ;
#140 = CYLINDRICAL_SURFACE ( 'NONE', #239, 4.099999999999999645 ) ;
#141 = CARTESIAN_POINT ( 'NONE',  ( 0.000000000000000000, 0.000000000000000000, 200.0000000000000000 ) ) ;
#142 = EDGE_CURVE ( 'NONE', #8, #245, #223, .T. ) ;
#143 = DATE_TIME_ROLE ( 'classification_date' ) ;
#144 = VERTEX_POINT ( 'NONE', #90 ) ;
#145 = PERSON_AND_ORGANIZATION_ROLE ( 'classification_officer' ) ;
#146 = PERSON_AND_ORGANIZATION ( #16, #116 ) ;
#147 = EDGE_CURVE ( 'NONE', #25, #190, #228, .T. ) ;
#148 = DIRECTION ( 'NONE',  ( -1.000000000000000000, 0.000000000000000000, 0.000000000000000000 ) ) ;
#149 = EDGE_CURVE ( 'NONE', #52, #12, #173, .T. ) ;
#150 = DIRECTION ( 'NONE',  ( -0.000000000000000000, -0.000000000000000000, -1.000000000000000000 ) ) ;
#151 = AXIS2_PLACEMENT_3D ( 'NONE', #139, #17, #155 ) ;
#152 = FACE_OUTER_BOUND ( 'NONE', #204, .T. ) ;
#153 = CYLINDRICAL_SURFACE ( 'NONE', #177, 4.099999999999999645 ) ;
#154 = FACE_OUTER_BOUND ( 'NONE', #1, .T. ) ;
#155 = DIRECTION ( 'NONE',  ( 1.000000000000000000, 0.000000000000000000, 0.000000000000000000 ) ) ;
#156 = LOCAL_TIME ( 12, 46, 22.00000000000000000, #202 ) ;
#157 = DIRECTION ( 'NONE',  ( -0.000000000000000000, -0.000000000000000000, -1.000000000000000000 ) ) ;
#158 = DIRECTION ( 'NONE',  ( 0.000000000000000000, 0.000000000000000000, 1.000000000000000000 ) ) ;
#159 = DIRECTION ( 'NONE',  ( -1.000000000000000000, 0.000000000000000000, 0.000000000000000000 ) ) ;
#160 = CALENDAR_DATE ( 2023, 12, 2 ) ;
#161 = DIRECTION ( 'NONE',  ( 1.000000000000000000, 0.000000000000000000, 0.000000000000000000 ) ) ;
#162 = ORIENTED_EDGE ( 'NONE', *, *, #27, .T. ) ;
#163 = CC_DESIGN_APPROVAL ( #112, ( #115 ) ) ;
#164 = CC_DESIGN_DATE_AND_TIME_ASSIGNMENT ( #74, #53, ( #115 ) ) ;
#165 = EDGE_CURVE ( 'NONE', #33, #245, #113, .T. ) ;
#166 = APPROVAL_STATUS ( 'not_yet_approved' ) ;
#167 = CARTESIAN_POINT ( 'NONE',  ( 4.099999999999999645, 5.021051876504147385E-16, 5.000000000000000000 ) ) ;
#168 = COORDINATED_UNIVERSAL_TIME_OFFSET ( 1, 0, .AHEAD. ) ;
#169 = CIRCLE ( 'NONE', #236, 7.000000000000000000 ) ;
#170 = DIRECTION ( 'NONE',  ( 1.000000000000000000, 0.000000000000000000, 0.000000000000000000 ) ) ;
#171 = CARTESIAN_POINT ( 'NONE',  ( 0.000000000000000000, 0.000000000000000000, 5.000000000000000000 ) ) ;
#172 = CARTESIAN_POINT ( 'NONE',  ( 4.099999999999999645, 5.021051876504147385E-16, 200.0000000000000000 ) ) ;
#173 = CIRCLE ( 'NONE', #95, 4.099999999999999645 ) ;
#174 = CARTESIAN_POINT ( 'NONE',  ( -4.099999999999999645, 0.000000000000000000, 200.0000000000000000 ) ) ;
#175 = FACE_OUTER_BOUND ( 'NONE', #45, .T. ) ;
#176 = EDGE_LOOP ( 'NONE', ( #196, #222, #104, #110 ) ) ;
#177 = AXIS2_PLACEMENT_3D ( 'NONE', #255, #84, #159 ) ;
#178 = CALENDAR_DATE ( 2023, 12, 2 ) ;
#179 = EDGE_CURVE ( 'NONE', #190, #25, #99, .T. ) ;
#180 = FACE_OUTER_BOUND ( 'NONE', #176, .T. ) ;
#181 = AXIS2_PLACEMENT_3D ( 'NONE', #124, #158, #26 ) ;
#182 = PERSON_AND_ORGANIZATION ( #16, #116 ) ;
#183 = EDGE_CURVE ( 'NONE', #12, #190, #21, .T. ) ;
#184 = ORIENTED_EDGE ( 'NONE', *, *, #179, .F. ) ;
#185 = DATE_AND_TIME ( #210, #241 ) ;
#186 = CIRCLE ( 'NONE', #82, 7.000000000000000000 ) ;
#187 = CC_DESIGN_SECURITY_CLASSIFICATION ( #106, ( #78 ) ) ;
#188 = DIRECTION ( 'NONE',  ( 0.000000000000000000, 0.000000000000000000, 1.000000000000000000 ) ) ;
#189 = APPLICATION_CONTEXT ( 'configuration controlled 3d designs of mechanical parts and assemblies' ) ;
#190 = VERTEX_POINT ( 'NONE', #234 ) ;
#191 = ORIENTED_EDGE ( 'NONE', *, *, #61, .F. ) ;
#192 = DIRECTION ( 'NONE',  ( 1.000000000000000000, 0.000000000000000000, 0.000000000000000000 ) ) ;
#193 = CYLINDRICAL_SURFACE ( 'NONE', #51, 7.000000000000000000 ) ;
#194 = DIRECTION ( 'NONE',  ( -0.000000000000000000, -0.000000000000000000, -1.000000000000000000 ) ) ;
#195 = APPROVAL ( #67, 'NEURÈENÝ' ) ;
#196 = ORIENTED_EDGE ( 'NONE', *, *, #149, .F. ) ;
#197 = PLANE ( 'NONE',  #181 ) ;
#198 = ORIENTED_EDGE ( 'NONE', *, *, #118, .F. ) ;
#199 = DATE_AND_TIME ( #160, #247 ) ;
#200 = ORIENTED_EDGE ( 'NONE', *, *, #118, .T. ) ;
#201 =( NAMED_UNIT ( * ) PLANE_ANGLE_UNIT ( ) SI_UNIT ( $, .RADIAN. ) );
#202 = COORDINATED_UNIVERSAL_TIME_OFFSET ( 1, 0, .AHEAD. ) ;
#203 = CC_DESIGN_PERSON_AND_ORGANIZATION_ASSIGNMENT ( #111, #242, ( #72 ) ) ;
#204 = EDGE_LOOP ( 'NONE', ( #20, #162, #87, #7 ) ) ;
#205 = PRODUCT_DEFINITION_SHAPE ( 'NONE', 'NONE',  #115 ) ;
#206 = PERSON_AND_ORGANIZATION ( #16, #116 ) ;
#207 = APPROVAL_DATE_TIME ( #135, #122 ) ;
#208 = APPROVAL_ROLE ( '' ) ;
#209 = CC_DESIGN_APPROVAL ( #195, ( #106 ) ) ;
#210 = CALENDAR_DATE ( 2023, 12, 2 ) ;
#211 = EDGE_LOOP ( 'NONE', ( #238, #3 ) ) ;
#212 = ADVANCED_FACE ( 'NONE', ( #65, #121 ), #197, .T. ) ;
#213 = VECTOR ( 'NONE', #40, 1000.000000000000000 ) ;
#214 = APPROVAL_PERSON_ORGANIZATION ( #224, #122, #9 ) ;
#215 = DIRECTION ( 'NONE',  ( -0.000000000000000000, -0.000000000000000000, -1.000000000000000000 ) ) ;
#216 = DIRECTION ( 'NONE',  ( 0.000000000000000000, 0.000000000000000000, 1.000000000000000000 ) ) ;
#217 = ORIENTED_EDGE ( 'NONE', *, *, #31, .T. ) ;
#218 = CARTESIAN_POINT ( 'NONE',  ( 0.000000000000000000, 0.000000000000000000, 0.000000000000000000 ) ) ;
#219 = LOCAL_TIME ( 12, 46, 22.00000000000000000, #168 ) ;
#220 = CARTESIAN_POINT ( 'NONE',  ( 0.000000000000000000, 0.000000000000000000, 0.000000000000000000 ) ) ;
#221 = APPROVAL_ROLE ( '' ) ;
#222 = ORIENTED_EDGE ( 'NONE', *, *, #36, .T. ) ;
#223 = CIRCLE ( 'NONE', #6, 7.000000000000000000 ) ;
#224 = PERSON_AND_ORGANIZATION ( #16, #116 ) ;
#225 = MANIFOLD_SOLID_BREP ( 'Pøidat vysunutím3', #109 ) ;
#226 = ORIENTED_EDGE ( 'NONE', *, *, #179, .T. ) ;
#227 = LINE ( 'NONE', #37, #213 ) ;
#228 = CIRCLE ( 'NONE', #250, 4.099999999999999645 ) ;
#229 = ORIENTED_EDGE ( 'NONE', *, *, #27, .F. ) ;
#230 = DIRECTION ( 'NONE',  ( 1.000000000000000000, 0.000000000000000000, -0.000000000000000000 ) ) ;
#231 = AXIS2_PLACEMENT_3D ( 'NONE', #171, #35, #18 ) ;
#232 = CARTESIAN_POINT ( 'NONE',  ( -7.000000000000000000, 0.000000000000000000, 5.000000000000000000 ) ) ;
#233 = APPROVAL_PERSON_ORGANIZATION ( #120, #195, #221 ) ;
#234 = CARTESIAN_POINT ( 'NONE',  ( -4.099999999999999645, 0.000000000000000000, 5.000000000000000000 ) ) ;
#235 = EDGE_LOOP ( 'NONE', ( #184, #97 ) ) ;
#236 = AXIS2_PLACEMENT_3D ( 'NONE', #253, #81, #170 ) ;
#237 = PERSON_AND_ORGANIZATION_ROLE ( 'design_supplier' ) ;
#238 = ORIENTED_EDGE ( 'NONE', *, *, #61, .T. ) ;
#239 = AXIS2_PLACEMENT_3D ( 'NONE', #93, #215, #43 ) ;
#240 = CARTESIAN_POINT ( 'NONE',  ( 0.000000000000000000, 0.000000000000000000, 5.000000000000000000 ) ) ;
#241 = LOCAL_TIME ( 12, 46, 22.00000000000000000, #244 ) ;
#242 = PERSON_AND_ORGANIZATION_ROLE ( 'design_owner' ) ;
#243 = CC_DESIGN_PERSON_AND_ORGANIZATION_ASSIGNMENT ( #89, #86, ( #78 ) ) ;
#244 = COORDINATED_UNIVERSAL_TIME_OFFSET ( 1, 0, .AHEAD. ) ;
#245 = VERTEX_POINT ( 'NONE', #107 ) ;
#246 = CALENDAR_DATE ( 2023, 12, 2 ) ;
#247 = LOCAL_TIME ( 12, 46, 22.00000000000000000, #42 ) ;
#248 = CC_DESIGN_APPROVAL ( #122, ( #78 ) ) ;
#249 = CALENDAR_DATE ( 2023, 12, 2 ) ;
#250 = AXIS2_PLACEMENT_3D ( 'NONE', #240, #71, #92 ) ;
#251 = DIRECTION ( 'NONE',  ( 0.000000000000000000, 0.000000000000000000, 1.000000000000000000 ) ) ;
#252 = DIRECTION ( 'NONE',  ( 0.000000000000000000, 0.000000000000000000, 1.000000000000000000 ) ) ;
#253 = CARTESIAN_POINT ( 'NONE',  ( 0.000000000000000000, 0.000000000000000000, 0.000000000000000000 ) ) ;
#254 = CC_DESIGN_PERSON_AND_ORGANIZATION_ASSIGNMENT ( #206, #75, ( #115 ) ) ;
#255 = CARTESIAN_POINT ( 'NONE',  ( 0.000000000000000000, 0.000000000000000000, 200.0000000000000000 ) ) ;
ENDSEC;
END-ISO-10303-21;
